Playboy PV - Chords and Guitar Lead Tabs
Posted on Fri Jan 11, 2013 10:33 am


Jibba

Mainstream Artist
Mainstream Artist
http://www.youtube.com/user/xJibba?feature=mhee
You thanked this post! -
Thanks received by this post:

Message reputation : 100% (3 votes)



Spoiler:
Code:

Playboy
SCANDAL
Tabbed by Jibba
SCANDAL HEAVEN

Intro x 4
A C D

Verse
A A C~ A
A A C~ A

Chorus x 4
A C D

Verse
A A C~ A
A A C~ A

Chorus x 4
A C D

Solo
-------------------------------------------------------------------------
----------5-----5----------------------5--8~-----------------------------
----5--7-----7----7--------------5--7------------5--7---7b8b7----7b8b7---
-7-------------------7--5---5h7---------------7--------------------------
-------------------------------------------------------------------------
-------------------------------------------------------------------------

----------------5~---|---------------------------------------------------
----------------5~---|--5----5----5------5----------5-----5-----5--------
-5-----------5--5~---|--7b9--7b9--7b9b7--7b9b7------7b9b7-7b9b7-7b9b7----
---7---7--7----------|--------------------------7------------------------
---------------------|---------------------------------------------------
---------------------|---------------------------------------------------

-------------------------------------------------------------------------
-5-----------------------------------------------------------------------
-7b9b7b9b7b9b7b9b7------12h16h12h16h12h16h12h16h12h16h12h16h12h16h12h16--
-------------------------------------------------------------------------
-------------------------------------------------------------------------
-------------------------------------------------------------------------

-------------------------------------------------------------------------
-12b15b12b15b12b15b12b15b12b15b12b15b12b15b12b15-------------------------
-------------------------------------------------------------------------
-------------------------------------------------------------------------
-------------------------------------------------------------------------
-------------------------------------------------------------------------

A   D

Chorus x 12
A C D
A

Outro
C A

Nee, DOUSHIMASHOU!!!!
Oh, YOU ARE THE PLAYBOY!
I love this song, brings back their style from their Indie days ^^
The meaning of the lyrics are also HILARIOUS!


_________________________________________________________________________________________________
Back to top Go down

Re: Playboy PV - Chords and Guitar Lead Tabs
Posted on Fri Jan 11, 2013 11:46 am


borghie

Indie Artist
Indie Artist
http://distortedmind.binhoster.com/
wow thanks for the tab Clap


_________________________________________________________________________________________________
Back to top Go down

Re: Playboy PV - Chords and Guitar Lead Tabs
Posted on Fri Jan 11, 2013 12:03 pm


tori-chan

Shiroten Performer
Shiroten Performer
Wow! That was fast! Thanks!! Nice One


_________________________________________________________________________________________________
Back to top Go down

Re: Playboy PV - Chords and Guitar Lead Tabs
Posted on Fri Jan 11, 2013 12:26 pm


Erick M

International Performer
International Performer
Awesome cover man Clap
a lot heavier than Scandal version but so nicely smoothly played Praise


_________________________________________________________________________________________________
Please don't take my jokes too seriously
Back to top Go down

Re: Playboy PV - Chords and Guitar Lead Tabs
Posted on Fri Jan 11, 2013 1:49 pm


Kazu-x-Haz

International Performer
International Performer
Wow cool cover Ho Onion

heavier than SCANDAL Ver. but so nice smoothly played TOJ Onion


_________________________________________________________________________________________________


で私を訪問:
Fadeless Gazette - http://www.fadelessgazette.com/
Monochrome Heaven -
http://www.monochrome-heaven.com/
Last.FM - http://www.last.fm/user/Kazu-x-Haz

Tumblr:




Pls Leave a Message in my visitor message for my Flag Counter
http://www.scandal-heaven.com/u9514wall <---- Click


>>>>Official SCANDAL HEAVEN Group Last.Fm
Back to top Go down

Re: Playboy PV - Chords and Guitar Lead Tabs
Posted on Fri Jan 11, 2013 1:56 pm


heiya

Indie Artist
Indie Artist
wow! thanks for this Jibba-san! Praise


_________________________________________________________________________________________________
(づ๑•́ ₃ •̀๑)づ
(´ ▽`).。o♥
"it doesn't really matter since when did you start liking them or
how much do you actually know them to really feel their music"
(Mornings are evil (╯°□°)╯︵ ┻━┻ )
Back to top Go down

Re: Playboy PV - Chords and Guitar Lead Tabs
Posted on Mon Jan 14, 2013 11:31 am


boobooli

Caless Student
Caless Student
u did a good job
thank for sharing

Back to top Go down

Re: Playboy PV - Chords and Guitar Lead Tabs
Posted on Sat Mar 30, 2013 9:14 am


Andika

SPAMMER
SPAMMER
NICE arigatou Clap

Back to top Go down