Playboy Bass Tab [Page 1 of 1]

Playboy Bass Tab
Posted on Sat Jan 12, 2013 4:57 am


TomomiSlapThatBass

Caless Student
Caless Student
http://tomomi-slap-that-bass.tumblr.com
Playboy Bass Tab by Tomomi-Slap-That-Bass

Not sure if it's correct but I gave it my best shot Tongue
Also, I'm not totally sure about the slides, haven't had a chance to listen to the song a lot but I'm sure you can figure out what's right Tongue

Intro:
G|------------------------------------------
D<------------------------------------------
A|--------------5--------5--------5--------5
E|-1/8---555-88---555-88---555-88---555-88--

Verse 1:
G|------------------------
D<------------------------
A|------------------------
E|-55-55-8~-55-55-55-8~-55

Chorus:
G|------------------------------------------
D<------------------------------------------
A|--------------5--------5--------5--------5
E|-1/8---555-88---555-88---555-88---555-88--

Verse 2:
G|------------------------
D<------------------------
A|------------------------
E|-55-55-8~-55-55-55-8~-55


Chorus:
G|------------------------------------------
D<------------------------------------------
A|--------------5--------5--------5--------5
E|-1/8---555-88---555-88---555-88---555-88--

Guitar Solo's (Haruna and Mami rock!)
G|------------------------------------------------------------------------------
D<------------------------------------------------------------------------------
A|--------------5-5555555---------------------------5-5555555-------------------
E|-1/8---555-88-----------555-88-3-3333333---555-88-----------555-88-3-3333333--

G|----------------------------------------------------------------------------
D<----------------------------------------------------------------------------
A|---------5-5555555---------------------------5-5555555----------------------
E|--555-88-----------555-88-3-3333333---555-88-----------555-88-3-3333333---5~

Chorus/Outro:
G|--------------------------------------------------------------------------
D<--------------------------------------------------------------------------
A|--------------5-5555555--------5-5555555--------5-5555555--------5-5555555
E|-1/8---555-88-----------555-88-----------555-88-----------555-88----------

G|--------------------------------------------------------------------------
D<--------------------------------------------------------------------------
A|--------------5-5555555--------5-5555555--------5-5555555--------5-5555555
E|-13/5---555-88-----------555-88-----------555-88-----------555-88---------

G|-------------------------------------------------------------------
D<-------------------------------------------------------------------
A|-------5-5555555--------5-5555555--------5-5555555--------5-5555555
E|-555-88-----------555-88-----------555-88-----------555-88---------


_________________________________________________________________________________________________
http://tomomi-slap-that-bass.tumblr.com/
Back to top Go down