(SHARE) Bitter Chocolate Bass Tab
Posted on Sun Feb 10, 2013 3:28 pm


xcutioner

Caless Student
Caless Student
You thanked this post! -
Thanks received by this post:

Message reputation : 100% (2 votes)

copy paste to notepad

00:08 (INTRO)

|---------------------|
|---------------------|
|---------------------|
|--\12----------------|


|---------------------|
|---------------------| (4x)
|---------------------|
|--0-000--------------|


00:18 verse

|----------------------------------------------------------------------|
|------------------------------------------------------------------7---|
|--------------4-444---------4-444--2-222----------------3-3-3-5--5----|
|0-000--0-000---------5-555----------------5-555--2/9\2-----3----------|


|-------------------------------------------------------------------------------------------------------------|
|-----7-------7-------7-------7-------------------7------7----------------------------------------------------|
|--------------------------------4-44--4-44-----------------4-44--4-44---2-22--2--22------7--3-3333--7--------|
|0-0p5---0-0p5---0-0p5---0-0p5--------4----4--5-55---5-55--------4----4-------2-----2--5-5--5---------7-5-4-2-|


|-----9-7------------------------7------------------------------------------------------|
|----------7--------------------7----------------------------------4--------------------|
|-5/7--------7----4-6-7--4444-5----------------2-222--3-333--4-6-7---7-6-7--------------|
|--------------5--------------------5-0-5-555--------------------------------0-0-0-0----|


01:09 reff

|-------------------------------------------------------------------------------------------------------------------------------------|
|-------------------------------------------------------------------------------------------------------------------------------------|
|-------------------------------------------------------44-66-77-99-----------------------2-3-4--4-4-4-4--------2-4-7--3-3-3-3--2-2---|
|-5-5-5-5--7-7-7-7--0-0-0-0--4-4-4-4--5-5-5-5--8-8-8-8---------------5-5-5-5--7-7-7-54--4-----------------2-4-5-----------------------|


|-------------------------------------------------------------------------------------------------------------------------------------|
|--------------------------------------------------------------------77--7--99--9-----------9-10-11-----------------------------------|
|-------------------------------------------------------44-66-77-99-----7------9------11-11--------11-----------2-4-7--3-3-3-3--5-5---|
|-5-5-5-5--7-7-7-7--0-0-0-0--4-4-4-4--5-5-5-5--8-8-8-8-----------------------------------------------9\2--2-4-5-----------------------|


|----------------------------------------------------------------|
|----------------------------------------------------------------|
|-------------------------------------------------------3---33---|
|-0-0-0-0--0-0-0-0--7-7-7-7--7-7-7-7--5-5-5-5--5-5-5-5----3------|


back to verse

reff 2

|-------------------------------------------------------------------------------------------------------------------------------------|
|-------------------------------------------------------------------------------------------------------------------------------------|
|-------------------------------------------------------44-66-77-99----------------------------4-4-4-4----------2-4-7--3-3-3-3--2-2---|
|-5-5-5-5--7-7-7-7--0-0-0-0--4-4-4-4--5-5-5-5--8-8-8-8---------------5-5-5-5--7-7-7-54--45-67-------------2-4-5-----------------------|


|---------------------------------------------------------------------------------------------------------------------------------7-----|
|--------------------------------------------------------------------77--7--99--9-----------9-10-11--------------------------------7----|
|-------------------------------------------------------44-66-77-99-----7------9------11-11--------11-----------2-4-7--3-3-3-3/5--------|
|-5-5-5-5--7-7-7-7--0-0-0-0--4-4-4-4--5-5-5-5--8-8-8-8-----------------------------------------------9\2--2-4-5-------------------------|


solo gitar

|-------------------------------------------------------------------------------------------------------------------------------------|
|-------------------------------------------------------------------------------------------------------------------------------------|
|-------------------------------------------------------44-66-77-99-----------------------2-3-4--4-4-4-4--------2-4-7--3-3-3-3--2-2---|
|-5-5-5-5--7-7-7-7--0-0-0-0--4-4-4-4--5-5-5-5--8-8-8-8---------------5-5-5-5--7-7-7-54--4-----------------2-4-5-----------------------|

|-----9-7------------------------7------------------------------------------------------|
|----------7-------------------7-----------------------------------4--------------------|
|-5/7--------7----4-6-7--44--5-----------------2-222--3-333--4-6-7---7-6-7--------------|
|--------------5--------------------5-0-5-555--------------------------------0-0-0-0----|


04:01

|-----------------------------------------------------------|
|--7777--9999--6666-----------------------------------------|
|------------------------------------2-4-7--3-3-3-3---------|
|--------------------9-2/9\2--2-4-5-------------------------|


|---------------------------------------------------------------------------------------------------------------------------------------|
|--------------------------------------------------------------------77--7--99--9-----------9-10-11-------------------------------------|
|-------------------------------------------------------44-66-77-99-----7------9------11-11--------11-----------2-4-7--3-3-3-3--5-5-5-5-|
|-5-5-5-5--7-7-7-7--0-0-0-0--4-4-4-4--5-5-5-5--8-8-8-8-----------------------------------------------9\2--2-4-5-------------------------|


outro
|-------------------------------------------------------------------------------------------------------------------------------------|
|--------------------------------------------------------------------77--7--99--9-----------9-10-11-----------------------------------|
|-------------------------------------------------------44-66-77-99-----7------9------11-11--------11-----------2-4-7--3-3-3-3--5-5---|
|-5-5-5-5--7-7-7-7--0-0-0-0--4-4-4-4--5-5-5-5--8-8-8-8-----------------------------------------------9\2--2-4-5-----------------------|


|---------------------|
|---------------------| (8x)
|---------------------|
|--0-000--------------|



|---------------------|
|---------------------|
|---------------------|
|--2/9\2----0---------|



Last edited by xcutioner on Sun Feb 10, 2013 3:32 pm; edited 2 times in total

Back to top Go down