Hikare Chords and Tabs (COMPLETE)
Posted on Thu Apr 04, 2013 3:52 pm


alexmontero08

Shiroten Performer
Shiroten Performer
HIKARE by Alexander T. Montero
just copy and paste this on a spreadsheet... Enjoy... ^^,

LEGEND:
^ ---> bend up
/ ---> slide up
\ ---> slide down
<nth> ---> harmonics at nth fret

E7sus2 - x79777
D7sus2 - x57555
C7sus2 - x35333

Intro/verse:
E7sus2
D7sus2 C7sus2
C7sus2 D7sus2
E7sus2
D7sus2 C7sus2
C7sus2 D7sus2

Pre-Chorus:
A C#m
A B B7

Chorus:
E D A B
E D A B A Am

Solo:
E A C#m B

Chorus:
E D A B
E D A B A Am


Outro:
E7sus2
D7sus2 C7sus2
C7sus2 D7sus2
E7sus2
D7sus2 C7sus2
C7sus2

tabs:

Verse2:

e ----<5>----12---14---------12---14-----------------|
B -------<5>--------12--------------12---------------|
G ---------------------------------------------------|
D ---------------------------------------------------|
A ---------------------------------------------------|
E ---------------------------------------------------|


solo:

e ------------------------------------------------------------|
B ----5/12---5/12---14-12--14-12-10-9-10-10^------------------|
G ------------------------------------------9-----------------|
D ------------------------------------------------------------|
A ------------------------------------------------------------|
E ------------------------------------------------------------|

e ----------------------12----------12----------12----16------|
B ------12-----12-12-12----12-12-12----12-12-12----12---------|
G ----9----9-9------------------------------------------------|
D ------------------------------------------------------------|
A ------------------------------------------------------------|
E ------------------------------------------------------------|


_________________________________________________________________________________________________


Every beat of drums, every strum of guitar, every slap of bass string, you form Music...
Back to top Go down

Re: Hikare Chords and Tabs (COMPLETE)
Posted on Sat Apr 06, 2013 11:45 am


woeaih4

International Performer
International Performer
Hmm.. Is this standard tuning?

Back to top Go down

Re: Hikare Chords and Tabs (COMPLETE)
Posted on Sun Apr 07, 2013 5:06 am


alexmontero08

Shiroten Performer
Shiroten Performer
woeaih4 wrote:Hmm.. Is this standard tuning?

yes... standard tuning...


_________________________________________________________________________________________________


Every beat of drums, every strum of guitar, every slap of bass string, you form Music...
Back to top Go down