Shunkan Sentimental Bass tab
Posted on Fri Apr 23, 2010 12:36 pm


SourChicken

Shiroten Performer
Shiroten Performer
http://www.youtube.com/user/Bassection
Hey guys, I'm new here so I thought I'd contribute something to the community by tabbing the bass for Shunkan Sentimental.
It's far from perfect; some parts I couldn't figure out and some parts I just didn't know how to tab (I've never tabbed before) but the basics are there for anyone who wants to learn how to play it.
Please, If you notice a mistake then let me know and I'll correct it.
http://www.ultimate-guitar.com/tabs/s/scandal/shunkan_sentimental_btab.htm
Code:
0:04 (Intro)
|-----------------------------------|
|-----------------------------------|
|--5(x8)-7(x8)-9(x8)-4(x8)----------|
|-----------------------------------|

|----------------------7\-----------|
|--------------------7--------------|
|--5(x8)-7(x6)-7\5~ ----------------|
|-----------------------------------|

0:25 (Verse 1)
|-----------------------------------|
|-----------------------------------|
|-----------------------------------|
|--5-5-5-5--------------------------|

|-----------------------------------|
|-----------------------------------|
|--------4(x5)-0-2-4----------------|
|--2(x7)----------------------------|

|-----------------------------------|
|-----------------------------------|
|--5(x7)----------------------------|
|--------5(x4)-5-5-4-4--------------|

|-------------------------------6---|
|--------------------------------7--|
|--------4(x8)-5(x4)-7(x3)----------|
|--2(x7)-------------------5~ ------|

|-----------------------------------|
|-----------------------------------|
|-----------------------------------|
|--00-00-11-11----------------------|

|-------------------------------------------|
|--------------------1(x8)-2(x8)-3h4p3------|
|--------------5(x8)-------------------5-44-|
|--2(x8)-5(x8)------------------------------|

0:50 (Chorus)
|-----------------------------------|
|-----------------------------------|
|--5(x8)-7(x8)-9(x8)-4(x8)----------|
|-----------------------------------|

|-----------------------------------|
|-----------------------------------|
|--5(x8)-7(x8)----------------------|
|---------------5(x7)--9-9-9-9\-----|

|----------------------------------------|
|--------------44-66-77-99-1111-99-77-66-|
|--5(x8)-7(x8)---------------------------|
|----------------------------------------|

|-----------------------------------|
|-----------------------------------|
|--5(x6)-4-5(x8)-7(x7)-8-8-8\-------|
|-----------------------------------|

|---------------------7\------------|
|--------------------7--------------|
|--5(x7)-7(x6)-7\5~ ----------------|
|-----------------------------------|

1:19 (Verse 2)
|----------------------6(pop)-------|
|-----------------------------------|
|------------545-5------------------|
|--2-2-2989-------545---------------|

|-----------------------------------|
|-----------------------------------|
|------------545--------------------|
|--212-2989------55-----------------|

|----------------------6(pop)-------|
|-----------------------------------|
|------------545-5------------------|
|--212-2989-------545---------------|

|-------------------------------6---|
|--------------------------------7--|
|---------------5(x4)-7(x3)---------|
|--212-2989-979-------------5-5-----|

|-----------------------------------|
|-----------------------------------|
|-----------------------------------|
|--00-00-11-11----------------------|

|-------------------------------------------|
|--------------------1(x8)-2(x8)-3h4p3------|
|--------------5(x8)-------------------5-44-|
|--2(x8)-5(x8)------------------------------|

1:53 (Repeat Chorus)

2:16 (Guitar Solo)
|-----------------------------------|
|-----------------------------------|
|--5(x6)-4-5(x8)--------------------|
|----------------5(x6)-4-5(x8)------|

|-----------------------------------|
|-----------------------------------|
|--7(x6)-6-7(x8)-9(x8)--------------|
|-----------------------------------|

2:27 (Verse 3)
|-----------------------------------|
|--------11-9-777-------------------|
|--5(x7)----------------------------|
|------------------5(x7)-5-445-45---|

|-----------------------------------|
|-----------------------------------|
|---------------99-77\--------------|
|--3(x16)-2(x7)---------------------|

|-----------------------------------|
|--------11-9-777-------------------|
|--5(x7)----------------------------|
|------------------5(x7)-5-445-45---|

|-----------------------------------|
|-----------------------------------|
|--7(x7)-7-667-67-------------------|
|-----------------------------------|

|--------------------------------------|
|--------------------------------------|
|--9(x4)-8(x4)-7(x4)-6(x4)-------------|
|--------------------------99-99-9-99\-|

2:53 (Chorus/Outro)
|-----------------------------------|
|-----------------------------------|
|--5(x8)-7(x8)-9(x8)-4(x8)----------|
|-----------------------------------|

|-----------------------------------|
|-----------------------------------|
|--5(x8)-7(x8)----------------------|
|---------------5(x7)--9-9-9-9\-----|

|-----------------------------------|
|-----------------------------------|
|--5(x8)-7(x8)-9(x8)-4(x5)-024------|
|-----------------------------------|

|-----------------------------------|
|-----------------------------------|
|--5(x8)-7(x8)-9(x7)-10(x3)-4(x3)---|
|-----------------------------------|

|----------------------------------------|
|--------------44-66-77-99-1111-99-77-66-|
|--5(x8)-7(x8)---------------------------|
|----------------------------------------|

|-----------------------------------|
|-----------------------------------|
|--5(x6)-4-5(x8)-7(x7)-8-8-8\-------|
|-----------------------------------|

|-----------------------------------|
|-----------------------------------|
|--5(x8)-7(x8)-9(x8)-4(x5)-024------|
|-----------------------------------|

|-----------------------------------|
|-----------------------------------|
|--5(x8)-7(x8)--99-99-99-99\--------|
|-----------------------------------|



Last edited by SourChicken on Wed Jun 23, 2010 4:23 pm; edited 2 times in total

Back to top Go down

Re: Shunkan Sentimental Bass tab
Posted on Fri Apr 23, 2010 3:25 pm


asuna

Indie Artist
Indie Artist
http://thebudgetgeek.blogspot.com
nice! i've been trying to figure out the transitions as well, now after seeing your tab i am finally enlightened :D

thanks!

Back to top Go down

Re: Shunkan Sentimental Bass tab
Posted on Sat Apr 24, 2010 2:19 pm


SourChicken

Shiroten Performer
Shiroten Performer
http://www.youtube.com/user/Bassection
No problem, I'm planning on doing 'Hoshi no Furu Yoru ni' soon; my favourite song.

Back to top Go down

Re: Shunkan Sentimental Bass tab
Posted on Sun May 02, 2010 4:16 am


AshesOfWar

Caless Student
Caless Student
omg thx alooot!!! i've been searching this ones a long time ago!

Back to top Go down

Re: Shunkan Sentimental Bass tab
Posted on Sat May 29, 2010 9:35 am


kyoshiro13

Caless Student
Caless Student
hey! Shout thnx! for the tabs! Tears of Joy

Back to top Go down

Re: Shunkan Sentimental Bass tab
Posted on Sat May 29, 2010 1:24 pm


raei96

Caless Student
Caless Student
thank for the tabs..
i been searching for a long time

Back to top Go down

Re: Shunkan Sentimental Bass tab
Posted on Wed Jun 30, 2010 5:37 am


felixyukito

Indie Artist
Indie Artist
http://felixyukito.blogspot.com
My fav song of Scandal! .. but is quite hard at some part for me.. =P sorry for my noobness!! and thanks alot alot alot!! hontouni arigatou!

Back to top Go down

Re: Shunkan Sentimental Bass tab
Posted on Sat Jul 10, 2010 2:17 am


MadOrange

Shiroten Performer
Shiroten Performer
nyahahahaha~arigaotu for this tabs!

Back to top Go down

Re: Shunkan Sentimental Bass tab
Posted on Thu Aug 26, 2010 10:28 am


haruchan

Caless Student
Caless Student
http://ainoro.livejournal.com
thank you ♫ I've been fearing to play this song on Bass. But I'll try my best Tears of Joy

Back to top Go down

nice:)
Posted on Mon Oct 11, 2010 11:12 am


leynard01

Caless Student
Caless Student
ive been searching for this tab foa a long time..haha..scandal rocks!!!Happy\m/

Back to top Go down

Re: Shunkan Sentimental Bass tab
Posted on Sat Oct 16, 2010 1:49 pm


jamhero

Caless Student
Caless Student
thanx you for the tab

Back to top Go down

Re: Shunkan Sentimental Bass tab
Posted on Mon Jan 03, 2011 12:00 pm


CM0622

Caless Student
Caless Student
http://daichin.livejournal.com
thanks a lot!!!!!!!!! (〝,)


_________________________________________________________________________________________________
“By the laws of physics, hornets shouldn’t be able to fly. Because they’ve got huge bodies and tiny wings.
It’s said that the reason that they can fly is because they believe that they can.
That’s why hornets have been a symbol of things that can make the impossible possible.
I’ll be like a hornet and show you a miracle too.” Niini
Back to top Go down

Re: Shunkan Sentimental Bass tab
Posted on Fri Jan 07, 2011 8:55 am


AishiteruTomomi

Caless Student
Caless Student
ohw...its so different with the ones in youtube...
can u please post a vid of it OMG

^^


_________________________________________________________________________________________________
\
L and TOmomi LOVE
Back to top Go down

Re: Shunkan Sentimental Bass tab
Posted on Fri Jan 07, 2011 1:32 pm


SourChicken

Shiroten Performer
Shiroten Performer
http://www.youtube.com/user/Bassection
AishiteruTomomi wrote:ohw...its so different with the ones in youtube...
can u please post a vid of it OMG

^^
It's different because I never tabbed the PV version; I tabbed the full version from the single.

Back to top Go down

Re: Shunkan Sentimental Bass tab
Posted on Mon Jan 17, 2011 11:32 am


AishiteruTomomi

Caless Student
Caless Student
SourChicken wrote:
AishiteruTomomi wrote:ohw...its so different with the ones in youtube...
can u please post a vid of it OMG

^^
It's different because I never tabbed the PV version; I tabbed the full version from the single.


Wow youre so right...arigatou...


_________________________________________________________________________________________________
\
L and TOmomi LOVE
Back to top Go down

Re: Shunkan Sentimental Bass tab
Posted on Sat Jan 29, 2011 6:02 pm


dereko92

Shiroten Performer
Shiroten Performer
https://twitter.com/squeeker92
sweet (Y)

Back to top Go down

Re: Shunkan Sentimental Bass tab
Posted on Tue May 10, 2011 5:44 pm


Black Jack

Caless Student
Caless Student
nice one. Nice One
i already have my own, which i makes some changes(short-cuts) from their official band score. later if i have time i'll post the tabs here and maybe a video of me covering the song.

but for now let me help you for the ending part
1)direct copy from official band score
------------------------------------
------------------------------------
------------------------------------
--2-2--2-2--2-2-2--22---------

2)my own tab:
------------------------------------
------------------------------------
------------------------------------
--5-5--5-5--5-5-5--5-5---------
Glasses Onion


_________________________________________________________________________________________________
Back to top Go down

Re: Shunkan Sentimental Bass tab
Posted on Wed May 11, 2011 2:21 pm


note844

Caless Student
Caless Student
Thank You ^^

Back to top Go down

Re: Shunkan Sentimental Bass tab
Posted on Thu May 12, 2011 3:24 am


mulaw90

Caless Student
Caless Student
|----------------------------------------|
|-------------- 44 - 66 - 77 - 99 - 1111 -99 - 77 - 66-|
|--5(x8)-7(x8)---------------------------|
|----------------------------------------|

for this part rite, IMO if make it like this sounds more like it

|----------------------------------------|
|-------------- 44 - 66 -77 -99 -11 - 99 - 77 - 66-|
|--5(x8)-7(x8)---------------------------|
|----------------------------------------|

Back to top Go down

Re: Shunkan Sentimental Bass tab
Posted on Wed Aug 10, 2011 3:31 pm


akihisa

Caless Student
Caless Student
thanks for the tabs Happy

Back to top Go down