parkel

International Performer
International Performer
You thanked this post! -
Thanks received by this post:

Message reputation : 100% (1 vote)

Tried my hand at tabbing out the intro. Couldn't do the complete start, but managed to tab out the later part of the intro:

Spoiler:
Awanai Tsumori no, Genki de ne - INTRO TABS

E------------------------------------------------------------------------------------------------
B--9--9--9--9--9--9--7--5--5--5--5--5--9--7--9--10--12/-5----------------------------------------
G------------------------------------------------------------------------------------------------
D--6--6--6--6--6--6--4--2--2--2--2--2--6--4--6--7---9/--2----------------------------------------
A------------------------------------------------------------------------------------------------
E------------------------------------------------------------------------------------------------



E------------------------------------------------------------------------------------------------
B--9--9--9--9--9--9--7--5--5--5--5--5--9--7--9--7--5---------------------------------------------
G--------------------------------------------------------4-x-4-4---------------------------------
D--6--6--6--6--6--6--4--2--2--2--2--2--6--4--6--4--2-----4-x-4-4---------------------------------
A--------------------------------------------------------2-x-2-2---------------------------------
E------------------------------------------------------------------------------------------------

Paste into notepad for proper formatting.
Please do tell if you spot any mistakes.

Enjoy!

edit:
made a pretty small mistake inside. *should* be correct now.

edit2:
pretty major, sorry, shouldn't have tried to do it off memory. :/
Now it's in the correct key.


_________________________________________________________________________________________________
こんにゃちわ!~
Back to top Go down

~HaruHaru~

Shiroten Performer
Shiroten Performer
You thanked this post! -
Thanks received by this post:

Message reputation : 100% (3 votes)

thanks for the tabs it sounds perfect when you play it with with the song Clap

i tried tabbing out the early part you couldn't do and it came out ok.
its my first time tabbing so i might be about a half step off in some parts.

Spoiler:

E---------------------------------------------------12------------------------
B------------------13-----------------------------------13--------------------
G----------12--14------14------12-----------12--13----------14--12------------
D--12--15------------------15-------12--15------------------------------------
A-----------------------------------------------------------------------------
E-----------------------------------------------------------------------------

E-----------------------------------------------------------------------------
B------------------13-----------------------13--------------------------------
G----------12--14------14------12---------------14----------------------------
D--12--15------------------15-------12--15------------------------------------
A-----------------------------------------------------------------------------
E-----------------------------------------------------------------------------

paste into notepad like parkel's tab

Happy playing! Peace Onion

EDIT: fixed the intro according to the instructional dvd Cool Walk



Last edited by ~HaruHaru~ on Thu May 23, 2013 10:47 pm; edited 3 times in total

Back to top Go down