SCANDAL no Theme Bass Tabs
Posted on Thu Jul 11, 2013 12:34 am


Af8!

Shiroten Performer
Shiroten Performer
SCANDAL no Theme
INTRO:
E---00--33------------------33----00----33----------------
A----------00--1-22--11--00------------------00--1---2(X4)
D--------------------------------------------------------
G--------------------------------------------------------

Repeat intro until verse:

E---0--3--5----0--6--5---0--3--5--3(X14)
A-------------------------------------
D-------------------------------------
G-------------------------------------

Repeat one more time, then:

E---------------------------------------
A---5(X7)---4(X7)---2(X13)--4---5(X7)---
D---------------------------------------
G---------------------------------------

E---------------------------------------
A---4(X7)---2(X13)--4--5(X7)---4(X7)----
D---------------------------------------
G---------------------------------------

E------------------3(X14)---6(X14)------
A---2(X7)---3(X7)-----------------------
D---------------------------------------
G---------------------------------------

E---0(X14)---3(X8)---6(X8)---0(X14)--3(X8)
A----------------------------------------
D---------------------------------------
G---------------------------------------

Repeat until the end

E--0-----------------------------------
A--------------------------------------
D--------------------------------------
G--------------------------------------

Here you go! This is my first tab, so I hope I did ok. Also, I had a little trouble with a part in the chorus area. Please point out any mistakes.

Back to top Go down