Kagen No Tsuki Tab (Intro, Chorus and Outro)
Posted on Sat Aug 17, 2013 4:53 pm


M

Mainstream Artist
Mainstream Artist
You thanked this post! -
Thanks received by this post:

Message reputation : 100% (1 vote)

I'm sorry (and if you don't understand) if this does not include the Verses. Only Intro, Outro and Chorus.
Timing is also needed, though i find it easy to follow
I wrote in in tab version, not elaborating how many times you repeat or strum each chord.Balloon 

Intro [Mami]:

------------------------------
------------------------------
------------------------------
-----------------9-11-9------
--9-12-9---------------12----
------------------------------

-------------------------------
-------------------------------
-------------------------------
--9---9----9-10-11------------
---12--12---------------------
------------------------------
Chorus [Haruna]:

x---x--7--9---10--9---7--
9---6--9--11--12--11--9--
11--8--9--11--12--11--9--
11--8--7--9---10--9---7--
9---6--7--9---10--9---7--
9---6--7--9---10--9---7--

2--4--9---10--12--
4--6--11--12--14--
4--6--11--12--14--
2--4--9---10--12--
2--4--9---10--12--
2--4--9---10--12--
Outro [Mami]:

-------------------6------------- 
----7------9--------------9------ 
--6-------6------6-------6-------
---------------------------------
---------------------------------
---------------------------------

Back to top Go down

Re: Kagen No Tsuki Tab (Intro, Chorus and Outro)
Posted on Sun Aug 18, 2013 2:40 pm


Hyuga

Indie Artist
Indie Artist
Nice! If I had time I would tab the rest of the song and make a guitar pro tab for it.
Would be nice if we could collect all the small tabbed pieces to get a complete tab with the help of everyone Happy

Maybe should make a thread about it :o
Good job though!


_________________________________________________________________________________________________
Previously known as HugoDisasters
Back to top Go down

Re: Kagen No Tsuki Tab (Intro, Chorus and Outro)
Posted on Sun Aug 18, 2013 2:55 pm


M

Mainstream Artist
Mainstream Artist
Right right Nice One  Gathering is one way!


_________________________________________________________________________________________________
Back to top Go down