Standard guitar tab [Page 1 of 1]

Standard guitar tab
Posted on Thu Sep 19, 2013 9:33 pm


egalab

Caless Student
Caless Student
It's very noisy so I'm not really sure. But it seems something like this:

The intro F# power chord (244xxx) palm muted. 

Guitar 1. repeats this sliding over and over:
e---------------------
B---------------------
G---------------------
D---4/11--11-11---
A---------------------
E---------------------

Guitar 2. is messing with F# (an octave higher than the first note: xx467x):
e--------------------------------------------------------------5-5-5---
B---7-7--7--7--7--7--7--5-5-5---7-7--7--7--7--7--7--7-7-7---
G---6-6--6--6--6--6--6--6-6-6---6-6--6--6--6--6--6--6-6-6---
D---4-4--4--4--4--4--4--4-4-4---4-4--4--4--4--4--4--4-4-4---
A-----------------------------------------------------------------------
E-----------------------------------------------------------------------
Play this part up and down like a ska rhythm. 

The verse is basically drum only. But it's ending is F# again. You will figure out
the rhythm easily. 

These parts are repeating over and over again.

Solo:
e--------------------------------------------------------------
B--------------------------------------------------------------
G---4b5---4b5-4b5-4b5-4b5-4b5r4-2----------2------ 
D---------------------------------------------4---2-4---4---
A--------------------------------------------------------------
E--------------------------------------------------------------

e--------------------------------------------------------
B--------------------------------------------------------
G---16b17---16b17-16b17-16b17r16-14-------
D--------------------------------------------------16---
A--------------------------------------------------------
E--------------------------------------------------------

e------------------------------------------------------------
B------------------------------------------------------------
G-------------14-x--------------------16b17r16-14~---
D---14-16-x-------16-x-14-x-16-x----------------------
A------------------------------------------------------------
E------------------------------------------------------------
The ending of the solo is really fast picking, I start it on 16th fret on D string and go higher and higher in the scale by the end. You can figure out or just pick what sounds good.

There's little bridge after the solo: F# and G (355xxx) power chords.

The last part is a little riff (you play it twice):
e---17-0-14-0--- repeat it 4 times

e---19-0-17-0--- repeat it 4 times

e---14-0-12-0--- repeat it 4 times

e---14-14-14-14-14-14-14-14-16-16-16-16-16-16-16-16---

Last chord is F# (244xxx) and that's it.

Have fun!

Back to top Go down

Re: Standard guitar tab
Posted on Sat Sep 21, 2013 7:26 pm


~HaruHaru~

Shiroten Performer
Shiroten Performer
Thanks for posting up the tabs! It really helped me figure out how to play the whole song and here's something I came up with last night. Feel free to correct me on any mistakes.

There might actually be a rest instead of a slide in Guitar 1 but I could be wrong.
Guitar 1:

e |------------------------|
B |--7-7---15--15-15-------|
G |------------------------|
D |--4-4---11--11-11-------|
A |------------------------|
E |------------------------|


The first half of my solo is different but the rest is kinda similar.
Solo:

e |-------------------------------------------------------------------|
B |-------------------------------------------------------------------|
G |-------------------------------------------------------------------|
D |--10b11------10b11-10b11-10b11-10b11-10-8---------------7----------|
A |------------------------------------------10-9~---7--9-----9~------|
E |-------------------------------------------------------------------|

e |---------------------------------------------------------------------|
B |---------------------------------------------------------------------|
G |-16b17---16b17-16b17-1616b17-16-14--14-------14----------16b17-16b17-|
D |---------------------------------------14-16---16--14-16-------------|
A |---------------------------------------------------------------------|
E |---------------------------------------------------------------------|


        (Not sure about this part but it sounds kinda similar)
e |---------------------------------------------------------------|
B |---------------------------------------------------------------|
G |--14~-1111111113131313151515151717171719191919212121212121/----|
D |---------------------------------------------------------------|
A |---------------------------------------------------------------|
E |---------------------------------------------------------------|




and here's my ending riff which is also kinda different.
End Riff:

e |--14----------14----------14----------14-----------|
B |-----14-17-14----14-17-14----14-17-14----14-17-14--|
G |---------------------------------------------------|
D |---------------------------------------------------|
A |---------------------------------------------------|
E |---------------------------------------------------|


e |--17----------17----------17----------17-----------|
B |-----14-17-14----14-17-14----14-17-14----14-17-14--|
G |---------------------------------------------------|
D |---------------------------------------------------|
A |---------------------------------------------------|
E |---------------------------------------------------|


e |--14----------14----------14----------14-----------|
B |-----14-17-14----14-17-14----14-17-14----14-17-14--|
G |---------------------------------------------------|
D |---------------------------------------------------|
A |---------------------------------------------------|
E |---------------------------------------------------|


e |--17-17-17-17-17-17-17-17--------------------------|
B |--------------------------17-17-17-17-17-17-17-17--|
G |---------------------------------------------------|
D |---------------------------------------------------|
A |---------------------------------------------------|
E |---------------------------------------------------|

Copy and paste into notepad for a better layout


The first verse uses some mutes and a slide while the second verse uses some natural harmonics on the 5th and 12th frets. Your power chords are really accurate so it helped in learning the song. BTW if anyone wants to make a gp5 tab for the song I'll be willing to help whenever I can..


Enjoy! Peace Onion


_________________________________________________________________________________________________
Back to top Go down

Re: Standard guitar tab
Posted on Sat Sep 21, 2013 10:23 pm


egalab

Caless Student
Caless Student
For the guitar 1. sliding part: I still like it better with no octave. I hope we will see the song live and how the girls play it. I already made minor changes in my solo, it's kinda like yours now but I won't edit my post because yours is here and I'm too lazy. :D

I did't write about the verse noises at all so thanks for suplementing.
Btw I play the harmonics different way, I use the 7th fret too but it's just a personal choice, same notes.

Back to top Go down