Awanai Tsumori no, Genki De ne Intro TAB
Posted on Sun Sep 29, 2013 9:53 am


Mitchan

International Performer
International Performer
http://www.wattpad.com/user/MitchanAnni
my first TAB EVER! Awanai Tsumori No, Genki De ne.. It might be wrong because i don't really know how to write tabs.. so if i have mistakes please feel free to correct them!


E--7--11--7--7--7--------------------------------------------------------------------------------------
B--7--9--9--7--7--9--7--7--9--9--7--9-----------------------------------------------------------------------
G--6--9--9--6--9--6--9--9--6--9----------------------------------------------------------------------------
D-----------------------------------------------------------------------------------------------
A------------------------------------------------------------------------------------------------
E------------------------------------------------------------------------------------------------


_________________________________________________________________________________________________

                 Tears of Joy
Back to top Go down

Re: Awanai Tsumori no, Genki De ne Intro TAB
Posted on Tue Oct 01, 2013 3:17 am


Blue_Butterflies

Caless Student
Caless Student
Cool! Is this for the intro?


_________________________________________________________________________________________________
I don't plan on seeing you... "Take care"

Back to top Go down

Re: Awanai Tsumori no, Genki De ne Intro TAB
Posted on Tue Oct 01, 2013 11:12 am


Mitchan

International Performer
International Performer
http://www.wattpad.com/user/MitchanAnni
yes, when mami is beginning. till the "barred" intro..


_________________________________________________________________________________________________

                 Tears of Joy
Back to top Go down

Re: Awanai Tsumori no, Genki De ne Intro TAB
Posted on Thu Oct 03, 2013 1:29 am


Rodrigo Portella

Caless Student
Caless Student
You thanked this post! -
Thanks received by this post:

Message reputation : 100% (1 vote)

well, I play it like this...


E------------------------------------------------11---------------------------------------
B----------------12---------------------------------12---------------------------12--------------12-
G---------11-13-----13-----11-------11-13-----------13---11-------11-13---13--11---------13-
D-11-14-----------------14----11-14---------------------14---11-14------------14---11-14-----
A---------------------------------------------------------------------------------------------
E---------------------------------------------------------------------------------------------


ps: never whote tabs before, it's quite fun lol!!!


_________________________________________________________________________________________________
LOVE Love
Back to top Go down