[request] Metronome tabs / chords
Posted on Fri Oct 04, 2013 11:45 am


Ray190

Caless Student
Caless Student
You thanked this post! -
Thanks received by this post:

Message reputation : 100% (1 vote)

I really want to find  tabs or chords for this song 

I liked this song very much

Please, help to find Please


_________________________________________________________________________________________________
Back to top Go down

Re: [request] Metronome tabs / chords
Posted on Sun Oct 06, 2013 3:53 pm


egalab

Caless Student
Caless Student
You thanked this post! -
Thanks received by this post:

Message reputation : 100% (2 votes)

I haven't had time to make a full tab so there's no solo and outro. As soon as I'll have more time I'll figure out the remaining parts too (maybe in one or two days).

This tab is 1 guitar only and follows the rhythm guitar. No lead guitar fill ins, sorry. Maybe later, or someone else helps me out. Wink

I appreciate any corrections.

P.S. 1.: I added the outro. And I changed the second verse a bit. 

P.S. 2.: I added the solo and made minor changes again. Now it's a complete 1 guitar arrangement.

Copy and paste it into Notepad:

Spoiler:

Intro (I'm not 100% sure but I play it this way):
e----------------------------------------------------------
B----------------------------------------------------------
G---5--x-5---------------------5--x-5----------------------
D---5--x-5-----------3-4-3-1---5--x-5----------------------
A---3--x-3-1-3-1-3-1---------3-3--x-3-1-3-1-3-----1--------
E---------------------------------------------1-3----3-1---


Intro ending:
e-----------------------------
B-----------------------------
G-----------------------------
D---4-3-1-4-3-1-4-3-1-3-1-----
A-------------------------3---
E-----------------------------
Play the intro 3 times and a half, then the ending.


Verse:
It's possible that the tab does't follow the beat accurately.
I'm too lazy to count the strums but you'll get the idea how it goes.
e-------------------------------------------------------------
B-------------------------------------------------------------
G---5---5-5-5-5-5-5-5-5-5-5-5-7-8---8-8-8-8-8-8-8-8-8-8-8-----
D---5---5-5-5-5-5-5-5-5-5-5-5-7-8---8-8-8-8-8-8-8-8-8-8-8-8---
A---3---3-3-3-3-3-3-3-3-3-3-3-5-6---6-6-6-6-6-6-6-6-6-6-6-8---
E---------------------------------------------------------6---
 pm     . . . . . . . . . . .       . . . . . . . . . . .


e-----------------------------------------------------------------
B-----------------------------------------------------------------
G-----------------------------------------------------------------
D---6---6-6-6-6-5---6---6-6-6-6-5---6---6-6-6-6-6-6-8-8-8-5---8---
A---6---6-6-6-6-5---6---6-6-6-6-5---6---6-6-6-6-6-6-8-8-8-5---8---
E---4---4-4-4-4-3---4---4-4-4-4-3---4---4-4-4-4-4-4-6-6-6-3---6---
 pm     . . . .         . . . .         . . . . . . 


e-------------------------------------------------------------
B-------------------------------------------------------------
G---5---5-5-5-5-5-5-5-5-5-5-5-7-8---8-8-8-8-8-8-8-8-8-8-8-----
D---5---5-5-5-5-5-5-5-5-5-5-5-7-8---8-8-8-8-8-8-8-8-8-8-8-8---
A---3---3-3-3-3-3-3-3-3-3-3-3-5-6---6-6-6-6-6-6-6-6-6-6-6-8---
E---------------------------------------------------------6---
 pm     . . . . . . . . . . .       . . . . . . . . . . .


e---------------------------------------------------------------------
B---------------------------------------------------------------------
G---------------------------------------------------------------------
D---6---6-6-6-6-5---6---6-6-6-6-5---6---6-6-6-6-6-6-5-5-5-5-8-8-8-8---
A---6---6-6-6-6-5---6---6-6-6-6-5---6---6-6-6-6-6-6-5-5-5-5-8-8-8-8---
E---4---4-4-4-4-3---4---4-4-4-4-3---4---4-4-4-4-4-4-3-3-3-3-6-6-6-6---
 pm     . . . .         . . . .         . . . . . . 


Verse 2nd part:
You can play along with the bass or just play 1 note and let it ring (as I do).
e---------------------
B---------------------
G---------------5-8---
D---6---8---5---5-8---
A---6---8---5---3-6---
E---4---6---3---------


e-------------------------------------------------------------------
B-------------------------------------------------------------------
G-----------------------------------8-8-8---8-8-8---8-8-8---8-8-8---
D---6-6-6---6-6-6---6-6-6---6-6-6---8-8-8---8-8-8---8-8-8---8-8-8---
A---6-6-6---6-6-6---6-6-6---6-6-6---6-6-6---6-6-6---6-6-6---6-6-6---
E---4-4-4---4-4-4---4-4-4---4-4-4-----------------------------------
 pm . .     .       . .     . .     . .     .       . .     . .


Let ring the F.
e------------------------------------------
B------------------------------------------
G------------------------------------------
D---3-------10-9-8-7-6-5---5-5-5-5-5-5-5---
A---3-------10-9-8-7-6-5---5-5-5-5-5-5-5---
E---1--------8-7-6-5-4-3---3-3-3-3-3-3-3---


Refrain:
e---------------------------------------------------------------------------
B---------------------------------------------------------------------------
G---5---5-5---5-5-5---8---8-8---8-8-8---------------------------------------
D---5---5-5---5-5-5---8---8-8---8-8-8---6---6-6---6-6-6---8---8-8---8-8-8---
A---3---3-3---3-3-3---6---6-6---6-6-6---6---6-6---6-6-6---8---8-8---8-8-8---
E---------------------------------------4---4-4---4-4-4---6---6-6---6-6-6---


e---------------------------------------------------------------------------
B---------------------------------------------------------------------------
G---5---5-5---5-5-5---8---8-8---8-8-8---------------------------------------
D---5---5-5---5-5-5---8---8-8---8-8-8---6---6-6---6-6-6---------------------
A---3---3-3---3-3-3---6---6-6---6-6-6---6---6-6---6-6-6---8---6-8-9-8-6-----
E---------------------------------------4---4-4---4-4-4-----------------6---


Refrain 2nd part:
e---------------------------------------------------------------
B---------------------------------------------------------------
G-----------------------------------8---8-8-8---8-8-8---8-8-8---
D---6-6-6-6-6-6-6-6-6-6-6-6-6-6-6-6-8---8-8-8---8-8-8---8-8-8---
A---6-6-6-6-6-6-6-6-6-6-6-6-6-6-6-6-6---6-6-6---6-6-6---6-6-6---
E---4-4-4-4-4-4-4-4-4-4-4-4-4-4-4-4-----------------------------
 pm                                     . .     . .     . .


e-----------------------------------------------------------
B-----------------------------------------------------------
G---5---5-5-5-6\5---5---5-5-3-3---5---5-5-5-6\5-------3-3---
D---5---5-5-5-6\5---5---5-5-3-3---5---5-5-5-6\5---5-5-3-3---
A---3---3-3-3-4\3---3---3-3-1-1---3---3-3-3-4\3---5-5-1-1---
E-------------------------------------------------3-3-------
 pm     . . .           . .           . . .


Then the song repeats from the intro to the end of the refrain.

Though, there's a "little" change in the first half of the verse:
You play a G (xx57xx) and (xx58xx) intsead of C D D# A# G# G G# G G# but you play the last 3 chords: A# G A#. Just try it and you'll get what I mean.


After the second refrain, solo:
e---10-----------------10------11------13------15---------
B---13b15-------8------13b15---14b16---16b18---18b20------  
G--------------10b12--------------------------------------
D---------------------------------------------------------
A---------------------------------------------------------
E---------------------------------------------------------


e---20--15--18--20--15--------------15-15----------
B-------------------------16----18---------16------
G--------------------------------------------------
D--------------------------------------------------
A--------------------------------------------------
E--------------------------------------------------


e---15---18-18---15---20-20---15---13------
B----x----x--x----x----x--x----x----x------
G---12---15-15---12---17-17---12---10------
D------------------------------------------
A------------------------------------------
E------------------------------------------


Refrain again, then outro.

Outro:
Same as the intro but you add this at the end:
e-------------------
B-------------------
G---5---3-----------
D---------5-4-3-----
A---------------6---
E-------------------
Last chord is C.



Last edited by egalab on Wed Oct 09, 2013 2:38 pm; edited 4 times in total

Back to top Go down

Re: [request] Metronome tabs / chords
Posted on Sun Oct 06, 2013 4:04 pm


babaloued

International Performer
International Performer
I have the full tab from GIGS but I'm too lazy and it's a pain to re write it ...


_________________________________________________________________________________________________
 SCANDAL live 
 
2012.07.16 - バンドやろうよ!vol.3
2012.08.21 - Canal City Hakata
2014.06.28/29 - ARENA FESTIVAL DAY 1&2

2014.08.05 - RIJF 2014
2015.04.25/26/30 - HW TOUR 2015
2015.10.21 - TIMM
2016.09.10/17/20/21/24/25 - YELLOW in EUROPE 2016
Live!
15 are still not enough !
Back to top Go down

Re: [request] Metronome tabs / chords
Posted on Mon Oct 07, 2013 3:31 pm


Ray190

Caless Student
Caless Student
Maybe you can write full tabs, if you will have free time 
I will be grateful


_________________________________________________________________________________________________
Back to top Go down

Re: [request] Metronome tabs / chords
Posted on Tue Oct 08, 2013 3:10 pm


Mitchan

International Performer
International Performer
http://www.wattpad.com/user/MitchanAnni
Does any of u have chords for this song? Please


_________________________________________________________________________________________________

                 Tears of Joy
Back to top Go down

Re: [request] Metronome tabs / chords
Posted on Tue Oct 08, 2013 4:37 pm


M

Mainstream Artist
Mainstream Artist
Mitchan~ wrote:Does any of u have chords for this song? Please
*Nothing related to the Thread*
I like your signature! From what vid is it?Amazed

Back to top Go down

Re: [request] Metronome tabs / chords
Posted on Tue Oct 08, 2013 4:58 pm


Mitchan

International Performer
International Performer
http://www.wattpad.com/user/MitchanAnni
Mamitachu wrote:
Mitchan~ wrote:Does any of u have chords for this song? Please
*Nothing related to the Thread*
I like your signature! From what vid is it?Amazed
Thanks Happy from Kimi to mirai to kanzen douki


_________________________________________________________________________________________________

                 Tears of Joy
Back to top Go down

Re: [request] Metronome tabs / chords
Posted on Tue Oct 08, 2013 5:01 pm


M

Mainstream Artist
Mainstream Artist
Mitchan~ wrote:
Mamitachu wrote:
Mitchan~ wrote:Does any of u have chords for this song? Please
*Nothing related to the Thread*
I like your signature! From what vid is it?Amazed
Thanks Happy from Kimi to mirai to kanzen douki
Eh really.sweat.  Looks like I must've missed this part of forgotten about it. Thanks!

Back to top Go down

Re: [request] Metronome tabs / chords
Posted on Tue Oct 08, 2013 5:14 pm


Mitchan

International Performer
International Performer
http://www.wattpad.com/user/MitchanAnni
Mamitachu wrote:
Mitchan~ wrote:
Mamitachu wrote:
Mitchan~ wrote:Does any of u have chords for this song? Please
*Nothing related to the Thread*
I like your signature! From what vid is it?Amazed
Thanks Happy from Kimi to mirai to kanzen douki
Eh really.sweat.  Looks like I must've missed this part of forgotten about it. Thanks!
Actually it's from full PV, mami's solo part, so maybe you haven't watched the full ver. of MV and u don't remember


_________________________________________________________________________________________________

                 Tears of Joy
Back to top Go down

Re: [request] Metronome tabs / chords
Posted on Tue Oct 08, 2013 7:23 pm


egalab

Caless Student
Caless Student
Mitchan~ wrote:Does any of u have chords for this song? Please
Why do you ask for the chords when you can see them in the tab? Though it misses the chords under the solo. Sorry, I couldn't complete the tab yet but I'll do it as soon as possible.

Or do you want me to write the chords like this?
Verse: C D D# A# G# G G# G G# A# G A#

Back to top Go down

Re: [request] Metronome tabs / chords
Posted on Wed Oct 09, 2013 12:27 pm


Mitchan

International Performer
International Performer
http://www.wattpad.com/user/MitchanAnni
egalab wrote:
Mitchan~ wrote:Does any of u have chords for this song? Please
Why do you ask for the chords when you can see them in the tab? Though it misses the chords under the solo. Sorry, I couldn't complete the tab yet but I'll do it as soon as possible.

Or do you want me to write the chords like this?
Verse: C D D# A# G# G G# G G# A# G A#
I'm asking for chords, cuz i can't read tabs DX


_________________________________________________________________________________________________

                 Tears of Joy
Back to top Go down

Re: [request] Metronome tabs / chords
Posted on Wed Oct 09, 2013 2:25 pm


egalab

Caless Student
Caless Student
Mitchan~ wrote:I'm asking for chords, cuz i can't read tabs DX
I'm sure someone will post the chords soon. I don't have time now but if it's not happening then I'll do it myself later this week.

On the other hand I completed the tabs today so everyone who haven't figured it out yet can learn the solo too!

Back to top Go down

Re: [request] Metronome tabs / chords
Posted on Wed Oct 09, 2013 3:11 pm


Mitchan

International Performer
International Performer
http://www.wattpad.com/user/MitchanAnni
egalab wrote:
Mitchan~ wrote:I'm asking for chords, cuz i can't read tabs DX
I'm sure someone will post the chords soon. I don't have time now but if it's not happening then I'll do it myself later this week.

On the other hand I completed the tabs today so everyone who haven't figured it out yet can learn the solo too!
Thank you! till that time, i'll try to learn reading tabs!


_________________________________________________________________________________________________

                 Tears of Joy
Back to top Go down

Re: [request] Metronome tabs / chords
Posted on Wed Oct 09, 2013 5:48 pm


babaloued

International Performer
International Performer
You thanked this post! -
Thanks received by this post:

Message reputation : 100% (1 vote)

What a pain just to write the intro ....
Anyway, I made a GP file for the intro and I will write the chords for the moment. I will complete the full tab later.
I'm still waiting my album so I didn't listen the song yet T^T.

Scandal_Metronome.tg (2 KB)
https://mega.co.nz/#!Yk4GES6A!M61LyRctqzq-42WA6OsUzxbv5-16zWTe8VgpoMBJe1A

Spoiler:

    Cm                            Dm  Eb                                    Bb  Ab
"Kimi wa koko de nani wo suru?" "Boku wa koko de yume wo miru!"
              G Ab            G Ab                    Bb  Gm   Bb
Ai no tame dare no tame? Jimonjitou de asa ni natta

Cm                        Dm Eb                              Bb Ab
Heddohon ja monotarinai monorafu ja nao tsumaranai
            G Ab           G Ab
Toushindai kono sonzai
               Gm7      AbM7       Bb             Gm7             Cm7
Daionryou de tsutaetai jounetsu no gen wo hiku kono migite wo
Eb           Ab                          Eb
Tashika na mono wa wakatteiru zutto tada ima wo sakebu
Fm        CmBmBbmAmAbm  Gm
Nagareru jikan wa   mou      tomaranai ya

   Cm       Eb
Hibike todoke
              Ab                   Bb         Cm
Kinou yori kyou e genkai wo koete
           Eb
Tobe
                  Ab                          Bb                 Ab
Honnnou wo sarakedashite hontou no jiga wo shire
                      Eb
Kokoro no mama ni
Cm        DbCm                  Bb
Madamada utauze kimi no tame ni
Cm      DbCm       Gm      Bb    Cm
Boku to kimi wo tsunaideiru merodi

EbM7                             EM7 EbM7                                EM7 EbM7
Metoronoomu hyakuhachijuu                haatobiito wa gorimuchuu
                                                          Bb      Gm  Bb Cm
Boku no tabuu kimi to hebun mousou de mata yoru ni natta

Cm                           DmEb                            Bb Ab
Chou ni natte hana hirari hachi ni natte mune chikuri
           G  Ab          G Ab
Amai hanii  toki ni hari
                      Gm7     AbM7      Bb                Gm7                Cm7
Mou boku kara nigerarenai iki wo seku kimi no koe wo boku ni kudasai
Eb           Ab                          Eb
Kasanaru oto ga rizumu ni nori motto tsuyoi omoi ni naru
Fm         Cm Bm Bbm Am Abm     Gm
Osaeta risei       wa      mou       iranai ya

     Cm          Eb
Susume tsuzuke
      Ab                      Bb        Cm
Mirai wo izanau hikari mezashite
        Eb
Ike
           Ab                        Bb              Ab
Kanjou wo mukidashite tsugi naru suteeji e
                        Eb
Muishiki no mama ni
Cm           DbCm                 Bb
Madamada kikasete boku no tame ni
Cm       DbCm         Gm    Bb     Ab
Kimi to boku wo kanadeteru haamonii

      Cm       Eb
Todoke tsuzuke
                 Ab            Bb             Cm
Ryouude wa sora e karada wo yurase
            Eb
Tobe
            Ab7                          Bb                 Ab
Shoudou wo sarakedashite anore no imi wo kire
                     Eb
Kokoro no moto ni
Cm           DbCm               Bb
Madamada utauze kimi no tame ni
Cm       DbCm        Gm         Bb
Boku to kimi de egaiteku sutoorii
 I'm sorry if it's not really clear but I have to study for an exam


_________________________________________________________________________________________________
 SCANDAL live 
 
2012.07.16 - バンドやろうよ!vol.3
2012.08.21 - Canal City Hakata
2014.06.28/29 - ARENA FESTIVAL DAY 1&2

2014.08.05 - RIJF 2014
2015.04.25/26/30 - HW TOUR 2015
2015.10.21 - TIMM
2016.09.10/17/20/21/24/25 - YELLOW in EUROPE 2016
Live!
15 are still not enough !
Back to top Go down

Re: [request] Metronome tabs / chords
Posted on Wed Oct 09, 2013 7:12 pm


kudo_maharizu

Mainstream Artist
Mainstream Artist
http://stomachofchaos.com
babaloued wrote:I'm still waiting my album so I didn't listen the song yet T^T.
You still haven't received the album yet? Oh, man - Metoronomu's the most rocking song on the record in my opinion. (All the best for your exams btw)

I have the full score or Metronome from the latest GiGS too, but not sure on SH's rules on scanning the tab for putting it up on the forum. SH members scan photos from mags on SH all the time, but I don't want to be presumptuous. Also, I've not seen anyone post a scanned photo of any of the band's tabs/score from GiGS or GGGuitar... so, I guess doing that is a big no-no?

Anyway, there are enough posts of the chords in this thread already. And there's even a cover video of the song done (go to the Member's Creation thread and check it out!) already too.

Back to top Go down

Re: [request] Metronome tabs / chords
Posted on Fri Nov 08, 2013 12:04 pm


hitokiri347

Caless Student
Caless Student
egalab wrote:I haven't had time to make a full tab so there's no solo and outro. As soon as I'll have more time I'll figure out the remaining parts too (maybe in one or two days).

This tab is 1 guitar only and follows the rhythm guitar. No lead guitar fill ins, sorry. Maybe later, or someone else helps me out. Wink

I appreciate any corrections.

P.S. 1.: I added the outro. And I changed the second verse a bit. 

P.S. 2.: I added the solo and made minor changes again. Now it's a complete 1 guitar arrangement.

Copy and paste it into Notepad:

Spoiler:

Intro (I'm not 100% sure but I play it this way):
e----------------------------------------------------------
B----------------------------------------------------------
G---5--x-5---------------------5--x-5----------------------
D---5--x-5-----------3-4-3-1---5--x-5----------------------
A---3--x-3-1-3-1-3-1---------3-3--x-3-1-3-1-3-----1--------
E---------------------------------------------1-3----3-1---


Intro ending:
e-----------------------------
B-----------------------------
G-----------------------------
D---4-3-1-4-3-1-4-3-1-3-1-----
A-------------------------3---
E-----------------------------
Play the intro 3 times and a half, then the ending.


Verse:
It's possible that the tab does't follow the beat accurately.
I'm too lazy to count the strums but you'll get the idea how it goes.
e-------------------------------------------------------------
B-------------------------------------------------------------
G---5---5-5-5-5-5-5-5-5-5-5-5-7-8---8-8-8-8-8-8-8-8-8-8-8-----
D---5---5-5-5-5-5-5-5-5-5-5-5-7-8---8-8-8-8-8-8-8-8-8-8-8-8---
A---3---3-3-3-3-3-3-3-3-3-3-3-5-6---6-6-6-6-6-6-6-6-6-6-6-8---
E---------------------------------------------------------6---
 pm     . . . . . . . . . . .       . . . . . . . . . . .


e-----------------------------------------------------------------
B-----------------------------------------------------------------
G-----------------------------------------------------------------
D---6---6-6-6-6-5---6---6-6-6-6-5---6---6-6-6-6-6-6-8-8-8-5---8---
A---6---6-6-6-6-5---6---6-6-6-6-5---6---6-6-6-6-6-6-8-8-8-5---8---
E---4---4-4-4-4-3---4---4-4-4-4-3---4---4-4-4-4-4-4-6-6-6-3---6---
 pm     . . . .         . . . .         . . . . . . 


e-------------------------------------------------------------
B-------------------------------------------------------------
G---5---5-5-5-5-5-5-5-5-5-5-5-7-8---8-8-8-8-8-8-8-8-8-8-8-----
D---5---5-5-5-5-5-5-5-5-5-5-5-7-8---8-8-8-8-8-8-8-8-8-8-8-8---
A---3---3-3-3-3-3-3-3-3-3-3-3-5-6---6-6-6-6-6-6-6-6-6-6-6-8---
E---------------------------------------------------------6---
 pm     . . . . . . . . . . .       . . . . . . . . . . .


e---------------------------------------------------------------------
B---------------------------------------------------------------------
G---------------------------------------------------------------------
D---6---6-6-6-6-5---6---6-6-6-6-5---6---6-6-6-6-6-6-5-5-5-5-8-8-8-8---
A---6---6-6-6-6-5---6---6-6-6-6-5---6---6-6-6-6-6-6-5-5-5-5-8-8-8-8---
E---4---4-4-4-4-3---4---4-4-4-4-3---4---4-4-4-4-4-4-3-3-3-3-6-6-6-6---
 pm     . . . .         . . . .         . . . . . . 


Verse 2nd part:
You can play along with the bass or just play 1 note and let it ring (as I do).
e---------------------
B---------------------
G---------------5-8---
D---6---8---5---5-8---
A---6---8---5---3-6---
E---4---6---3---------


e-------------------------------------------------------------------
B-------------------------------------------------------------------
G-----------------------------------8-8-8---8-8-8---8-8-8---8-8-8---
D---6-6-6---6-6-6---6-6-6---6-6-6---8-8-8---8-8-8---8-8-8---8-8-8---
A---6-6-6---6-6-6---6-6-6---6-6-6---6-6-6---6-6-6---6-6-6---6-6-6---
E---4-4-4---4-4-4---4-4-4---4-4-4-----------------------------------
 pm . .     .       . .     . .     . .     .       . .     . .


Let ring the F.
e------------------------------------------
B------------------------------------------
G------------------------------------------
D---3-------10-9-8-7-6-5---5-5-5-5-5-5-5---
A---3-------10-9-8-7-6-5---5-5-5-5-5-5-5---
E---1--------8-7-6-5-4-3---3-3-3-3-3-3-3---


Refrain:
e---------------------------------------------------------------------------
B---------------------------------------------------------------------------
G---5---5-5---5-5-5---8---8-8---8-8-8---------------------------------------
D---5---5-5---5-5-5---8---8-8---8-8-8---6---6-6---6-6-6---8---8-8---8-8-8---
A---3---3-3---3-3-3---6---6-6---6-6-6---6---6-6---6-6-6---8---8-8---8-8-8---
E---------------------------------------4---4-4---4-4-4---6---6-6---6-6-6---


e---------------------------------------------------------------------------
B---------------------------------------------------------------------------
G---5---5-5---5-5-5---8---8-8---8-8-8---------------------------------------
D---5---5-5---5-5-5---8---8-8---8-8-8---6---6-6---6-6-6---------------------
A---3---3-3---3-3-3---6---6-6---6-6-6---6---6-6---6-6-6---8---6-8-9-8-6-----
E---------------------------------------4---4-4---4-4-4-----------------6---


Refrain 2nd part:
e---------------------------------------------------------------
B---------------------------------------------------------------
G-----------------------------------8---8-8-8---8-8-8---8-8-8---
D---6-6-6-6-6-6-6-6-6-6-6-6-6-6-6-6-8---8-8-8---8-8-8---8-8-8---
A---6-6-6-6-6-6-6-6-6-6-6-6-6-6-6-6-6---6-6-6---6-6-6---6-6-6---
E---4-4-4-4-4-4-4-4-4-4-4-4-4-4-4-4-----------------------------
 pm                                     . .     . .     . .


e-----------------------------------------------------------
B-----------------------------------------------------------
G---5---5-5-5-6\5---5---5-5-3-3---5---5-5-5-6\5-------3-3---
D---5---5-5-5-6\5---5---5-5-3-3---5---5-5-5-6\5---5-5-3-3---
A---3---3-3-3-4\3---3---3-3-1-1---3---3-3-3-4\3---5-5-1-1---
E-------------------------------------------------3-3-------
 pm     . . .           . .           . . .


Then the song repeats from the intro to the end of the refrain.

Though, there's a "little" change in the first half of the verse:
You play a G (xx57xx) and (xx58xx) intsead of C D D# A# G# G G# G G# but you play the last 3 chords: A# G A#. Just try it and you'll get what I mean.


After the second refrain, solo:
e---10-----------------10------11------13------15---------
B---13b15-------8------13b15---14b16---16b18---18b20------  
G--------------10b12--------------------------------------
D---------------------------------------------------------
A---------------------------------------------------------
E---------------------------------------------------------


e---20--15--18--20--15--------------15-15----------
B-------------------------16----18---------16------
G--------------------------------------------------
D--------------------------------------------------
A--------------------------------------------------
E--------------------------------------------------


e---15---18-18---15---20-20---15---13------
B----x----x--x----x----x--x----x----x------
G---12---15-15---12---17-17---12---10------
D------------------------------------------
A------------------------------------------
E------------------------------------------


Refrain again, then outro.

Outro:
Same as the intro but you add this at the end:
e-------------------
B-------------------
G---5---3-----------
D---------5-4-3-----
A---------------6---
E-------------------
Last chord is C.




thank you so much.... Clap 

Back to top Go down