[Bass Tabs] one piece [Page 1 of 1]

[Bass Tabs] one piece
Posted on Sun Nov 17, 2013 7:25 am


ILYRina-chan

Shiroten Performer
Shiroten Performer
Hello guys. So, there weren't any threads or topics about the bass tab of one piece so I decided to do it for you guys.

I'd like to take NOTE that without this guy's bass cover:

I wouldn't have transcribed the bass tabs for this song. I just listened to his cover and looked where his fingers are placed.
It was an easy task and I hope I was of help. Of course, more kudos to the guy who created the cover.

NOTE: Please place this on notepad with the font courier
Spoiler:
[Verse]

----------------------------------------------------
----------------------------------------------------
----------------------------------------------------
-12\------------------------------------------------

----------------------------------------------------
----------------------------------------------------
----------------------------------------------------
-00000000-55555555-00000000-55555555------------

----------------------------------------------------
----------------------------------------------------
-6666--------4444--2222-----------------------------
-------4444--------------22222222--55555555---------

[Refrain]

----------------------------------------------------
----------------------------------------------------
-----------44444444---------------------------------
-44444444------------22222222--77777--575-----------

-----------------------------------------------------
---------------------------------------------------11\-
-----------44444444------------22222222--4444444/-----
-44444444------------55555555-------------------------

[Chorus]

-----------------------------------------------------------
-----------------------------------------------------------
-1/12\1---2222--4444--------------2222--1111--6666---------
----------------------2222--4444--------------------4444---

-----------------------------------------------------------
-----------------------------------------------------------
-2222--5555--6666--4444--2222--4444------------------------
-------------------------------------2222--444--2-4-2------

-----------------------------------------------------------
-----------------------------------------------------------
-2222--4444--------------2222--1111--6666------------------
-------------2222--4444--------------------4444------------

-----------------------------------------------------------
---------------------------------------------11--11--------
-2222--55--88--6666--4444------------44444/----------------
---------------------------44444444------------------------

-----------------------------------------------------------
-----------------------------------------------------------
-----------------------------------------------------------
-2222--4444-6666-7646--2222--4444--6666--4676--------------

-----------------------------------------------------------
-----------------------------------------------------------
-----------------------------------------------------------
-2222--4444-6666-7646--2222--4444--5555--7777\-------------

[Verse II]

-----------------------------------------------------------
-----------------------------------------------------------
-----------------------------------------------------------
-13\-------------------------------------------------------

----------------------------------------------------
----------------------------------------------------
----------------------------------------------------
-00000000-55555555-00000000-55555555----------------

----------------------------------------------------
----------------------------------------------------
-6666--------4444--2222-----------------------------
-------4444--------------22222222--55555555---------

[Refrain II]

----------------------------------------------------
----------------------------------------------------
-----------44444444---------------------------------
-44444444------------22222222--77777--575-----------

-----------------------------------------------------------------------
-----------------------------------------------------11-11-11-11-11-11---
-----------44444444------------22222222--4444444/----------------------
-44444444------------55555555-----------------------------------------12\

[Interlude]

----------------------------------------------------
----------------------------------------------------
-----------22222--123--44444--345--66666666---------
-22222222-------------------------------------------

----------------------------------------------------
----------------------------------------------11------
-----------22222--123--55555555--44444444/----------
-22222222-------------------------------------------

[Bridge]

----------------------------------------------------
----------------------11--11------------------------
----55555555--44444/--------------------------------
-1/-------------------------------------------------

[Repeat Chorus]


_________________________________________________________________________________________________
"Do not lose your composure...
Do not break your stance...
Stretch out your awareness...
And do not let your guard down for even a second."
+Ulquiorra Schiffer+
Back to top Go down