Re: Taiyou to Kimi Egaku STORY Chords & Tabs
Posted on Sun May 23, 2010 10:22 pm


heat_cloud

Caless Student
Caless Student
oh wow. thnks dude for the tabs and chords Happy

Back to top Go down

Re: Taiyou to Kimi Egaku STORY Chords & Tabs
Posted on Mon May 24, 2010 2:58 am


noctis

Shiroten Performer
Shiroten Performer
thanks tsun. thanks for the tabs.@

Back to top Go down

Re: Taiyou to Kimi Egaku STORY Chords & Tabs
Posted on Mon May 24, 2010 5:40 am


HateWhatISee

Caless Student
Caless Student
Nice one Tsun! And yeah, I think 4L143 is right, what are the equivalent's that you used? I saw the vid but your strings though are kinda thinner than usual (damn youtube quality) so there are times I can't really tell (and maybe a few others)

Back to top Go down

Re: Taiyou to Kimi Egaku STORY Chords & Tabs
Posted on Mon May 24, 2010 5:48 am


tsunvun86

Indie Artist
Indie Artist
http://tsunvun86.wordpress.com/
They are just power chords and barre chords of the chords. If you guys really unsure about power and barre chords then I can put them up.

Back to top Go down

Re: Taiyou to Kimi Egaku STORY Chords & Tabs
Posted on Tue May 25, 2010 5:19 pm


tsuruya

Caless Student
Caless Student
thanks alot for the chord. that was really fast.

me myself had already try to search the chords they are playing,n i know that they play with the F# running chord but it turned out that my skill wasnt enough to search all of that chord.

thanks for the chords n tabs once again!

Back to top Go down

Re: Taiyou to Kimi Egaku STORY Chords & Tabs
Posted on Wed May 26, 2010 12:36 pm


Rokuken

Shiroten Performer
Shiroten Performer
Thanks for the chords. You rock! Nice One
But can someone help me? The timing is a bit confusing. Confused Onion

Back to top Go down

Re: Taiyou to Kimi Egaku STORY Chords & Tabs
Posted on Sat May 29, 2010 4:10 pm


chopstickattack

Shiroten Performer
Shiroten Performer
chord equivalents please Please

Back to top Go down

Re: Taiyou to Kimi Egaku STORY Chords & Tabs
Posted on Sat May 29, 2010 4:53 pm


tsunvun86

Indie Artist
Indie Artist
http://tsunvun86.wordpress.com/
I'll write out power chords which I mostly use in this song.

F# - 244xxx
E - x799xx
Ebm - x688xx
D - x577xx
C# - x466xx
G#m - 466xxx
Bbm - x133xx
C#m - x466xx
Eb - x688xx
F#/G - 34xxxx
B/F# - 224442 (barre chord)
B - x244xx
Cmadd11+ - x345xx
Bsus2 - x24422 (barre chord)


_________________________________________________________________________________________________
Back to top Go down

Re: Taiyou to Kimi Egaku STORY Chords & Tabs
Posted on Sun May 30, 2010 2:41 am


lamevil

Indie Artist
Indie Artist
woohooo! thanks for the tabs tsun! =D!


_________________________________________________________________________________________________
Back to top Go down

Re: Taiyou to Kimi Egaku STORY Chords & Tabs
Posted on Sun May 30, 2010 6:58 am


akizukilawliet

Caless Student
Caless Student
yay!!! :D sugoi sugoi.. arigato! :D Tears of Joy Tears of Joy Tears of Joy Dies

Back to top Go down

Re: Taiyou to Kimi Egaku STORY Chords & Tabs
Posted on Sun May 30, 2010 4:51 pm


chopstickattack

Shiroten Performer
Shiroten Performer
sankyuu!!! LOVE

Back to top Go down

Re: Taiyou to Kimi Egaku STORY Chords & Tabs
Posted on Mon May 31, 2010 12:50 pm


tsunvun86

Indie Artist
Indie Artist
http://tsunvun86.wordpress.com/
Fixed a tiny part of the solo now that i can listen to the instrumental I noticed it is a bit different from what I thought it was.

Sorry bout that.


_________________________________________________________________________________________________
Back to top Go down

Re: Taiyou to Kimi Egaku STORY Chords & Tabs
Posted on Tue Jun 01, 2010 12:37 am


tsuruya

Caless Student
Caless Student
no need to say sorry i think, you've really done great thing just by sharing us chords for this song few moments after the PV was released! n plus it's perfect!

thanks tsunvun for sharing Happy

Back to top Go down

Re: Taiyou to Kimi Egaku STORY Chords & Tabs
Posted on Tue Jun 01, 2010 6:19 am


Zelkova

Caless Student
Caless Student
thx for the chord and tabs tsunvun-sama ^^; this morning i have learning this song ^^l hehehe

Back to top Go down

Re: Taiyou to Kimi Egaku STORY Chords & Tabs
Posted on Fri Jun 04, 2010 1:20 am


sethbabs

Shiroten Performer
Shiroten Performer
SUgee!! Tsun-kun!! Amazed


_________________________________________________________________________________________________
Axe ME anything!!See THy Blog!! http://01e2bbab.seriousurls.com/
Back to top Go down

Re: Taiyou to Kimi Egaku STORY Chords & Tabs
Posted on Fri Jun 04, 2010 2:49 am


raiketsu

Shiroten Performer
Shiroten Performer
Nice tabs! Thank you! Don't know what to do if you're not around! Please Onion

Back to top Go down

Re: Taiyou to Kimi Egaku STORY Chords & Tabs
Posted on Sat Jun 05, 2010 4:32 am


Hollowkenshin

Caless Student
Caless Student
http://hollow-kenshin.deviantart.com/
i hope you don't mind me correcting your tab, in the start of the solo, the 11 fret that you wrote on the D should be on the G string.

Back to top Go down

Re: Taiyou to Kimi Egaku STORY Chords & Tabs
Posted on Sat Jun 05, 2010 4:55 am


tsunvun86

Indie Artist
Indie Artist
http://tsunvun86.wordpress.com/
^ Thanks for that. That part was actually one of the mistakes I wanted to correct during my previous tab update mentioned few posts back. But totally forgot to change that part =.=

But a mistake is a mistake.. no room for excuses..
Thanks for that.
Sorry bout that guys. Tabbing fail lol.


_________________________________________________________________________________________________
Back to top Go down

Re: Taiyou to Kimi Egaku STORY Chords & Tabs
Posted on Sun Jun 13, 2010 8:36 am


MadOrange

Shiroten Performer
Shiroten Performer
kyaaaaaaaaaaaaaaaaaaah~!
sugoi!~SUGOI!!!!!!! LOVE

Back to top Go down

Re: Taiyou to Kimi Egaku STORY Chords & Tabs
Posted on Tue Jun 22, 2010 12:33 pm


tricky_zero

Caless Student
Caless Student
ARIGATO~!

Back to top Go down

Hello
Posted on Sun Jul 11, 2010 4:33 am


JasonKUN

Caless Student
Caless Student
What a Tough chords??!!..haha

Back to top Go down

Re: Taiyou to Kimi Egaku STORY Chords & Tabs
Posted on Wed Jan 05, 2011 4:59 am


AishiteruTomomi

Caless Student
Caless Student
its so hard to memorize the letters...
can i have the tabs...
T_T


_________________________________________________________________________________________________
\
L and TOmomi LOVE
Back to top Go down

Re: Taiyou to Kimi Egaku STORY Chords & Tabs
Posted on Thu Oct 06, 2011 5:32 am


Unwell0430

Caless Student
Caless Student
tsunvun86 wrote:

*As usual Paste TABS into Notepad for original spacings.

SCANDAL - Taiyou to Kimi Egaku STORY

B/F# - 224442
F#/G - 3443xx
Cmadd11+ - x34543
A/5-(no3) - 567xxx
Bsus2 - x24422

Intro:
F# E Ebm D
C#

Verse 1:
F# G#m Bbm C#m Eb G#m F#/G B/F#
Bm Bbm Ebm
G#m G# C#
F# G#m Bbm C#m Eb G#m F#/G B/F#
C# Bb Ebm F#
B D E F#
B F#

Chorus:
B Bbm Ebm C#
G#m C# F#
C#m F#
B Bbm C#m Cmadd11+
B Bbm Ebm
G#m C#

Instrumental:
F# E Ebm C#

Verse 2:
F# G#m Bbm C#m Eb G#m F#/G B/F#
C# Bb Ebm F#
B D E F#
B F#

repeat Chorus

F#

Bridge:
D E C#m F#
Bm G
G#m C#

Solo:
B Ebm
F7 Bb Eb
C#

Chorus 2:
B Bbm Ebm C#
G#m C# F#
C#m F#
B G#m A/5-(no3) Bbm C#m Cmadd11+
B Bbm Ebm (x2)
G#m C#

Outro:
F# E Ebm D
C# (x2)
Bsus2


Intro/Outro (MAMI):
-------------------------------------------------------------------------------------------------------------------------------------
-11--12-12-11--11--12-12-11--12--14-14-12--12--14-14-12--------------------11-12--12/14-------14-------14-------14-------14----14----
-11--11-11-11--11--11-11-11--11--11-11-11--11--11-11-11------------11--13------------------------------------------------------------
-11--11-11-11--11--11-11-11--11--11-11-11--11--11-11-11----11--13-----------------------11-11----11-11----11-11----11-11----11----11-
-------------------------------------------------------------------------------------------------------------------------------------
-------------------------------------------------------------------------------------------------------------------------------------

1st Verse (MAMI):
F# G#m Bbm C#m Eb G#m F#/G B/F# Bm Bbm Ebm G#m G# C#
----------------------------------------------10----------------------------------------
-11-------------------------------------------12------11--12--11--12--13----------------
-11--11--10--11--13--12--13--15--13--15--16-------11--11--11--11--13--13--11--10--------
-----11--8---9---11--13--13--13--13--16--16-------9-----------------------11--11--------
----------------------------------------------------------------------------------------
----------------------------------------------------------------------------------------

Instrumental (MAMI):
--------------------------------------------------------------------------------------------
-11--12-12-11--11--12-12-11--12--14-14-12---14-------14-------14-------14-------14----14----
-11--11-11-11--11--11-11-11--11--11-11-11---------------------------------------------------
-11--11-11-11--11--11-11-11--11--11-11-11------11-11----11-11----11-11----11-11----11----11-
--------------------------------------------------------------------------------------------
--------------------------------------------------------------------------------------------


Solo:
--------------------------------------------------------------------
-11--------11-------11-------11-----------------11---11-------14/16-
-----11-------11-------11-------11--------10-11---------11----------
--------13-------13-------13-------13-/13------------------13-------
--------------------------------------------------------------------
--------------------------------------------------------------------

------------------------------------------14/16-14-------------
------------12-14-14/16-15--15---------------------------------
-/13--13-15----------------------11/13-11----------------------
---------------------------------------------------------------
---------------------------------------------------------------
---------------------------------------------------------------




Chords & Tabs by,
tsunvun86 @ SCANDAL-Heaven

Thanks for posting this.

This is my favorite scandal song. ^_^

Back to top Go down

Re: Taiyou to Kimi Egaku STORY Chords & Tabs
Posted on Sat Jul 21, 2012 3:45 am


Andika

SPAMMER
SPAMMER
thanks for tab
i can play it now Onion Skipping

Back to top Go down

Re: Taiyou to Kimi Egaku STORY Chords & Tabs
Posted on Thu Sep 27, 2012 9:18 am


Ninpan

Shiroten Performer
Shiroten Performer
WOOOW!! thanks a lot!!!

Back to top Go down