[request] koi no jajitsu
Posted on Sat Apr 07, 2012 4:35 am

lil_ishimaru

lil_ishimaru

Caless Student
Caless Student
can anybody here give me a koi no kajitsu bass tabs Please

Back to top Go down

Re: [request] koi no jajitsu
Posted on Tue Apr 17, 2012 11:39 am

UYL

UYL

Shiroten Performer
Shiroten Performer
lil_ishimaru wrote:can anybody here give me a koi no kajitsu bass tabs Please



yah...I want to know it!



People who misunderstand my fascination to Japanese Music are no different to those who really don't understand that MUSIC is a UNIVERSAL language.

[request] koi no jajitsu 530278_518239518200301_1411499125_n

Men 7900 lp battle damage received but in my turn? Cool
OTK! I drained 8000 before the BP comes! GG
Tsk Tsk Tsk
Back to top Go down

Re: [request] koi no jajitsu
Posted on Thu Apr 26, 2012 12:04 am

JosephRuela

JosephRuela

Indie Artist
Indie Artist



[request] koi no jajitsu Signatureqb
[request] koi no jajitsu Sh_cov15
Back to top Go down

Re: [request] koi no jajitsu
Posted on Thu Apr 26, 2012 6:19 am

Aosaru

Aosaru

International Performer
International Performer
@JosephRuela
Those are the guitar chords. The request is for the bass tabs.

Back to top Go down

Re: [request] koi no jajitsu
Posted on Thu Apr 26, 2012 4:44 pm

JosephRuela

JosephRuela

Indie Artist
Indie Artist
You thanked this post! -
Thanks received by this post:

Message reputation : 100% (1 vote)

Aosaru wrote:@JosephRuela
Those are the guitar chords. The request is for the bass tabs.

Sweating sorry my lack of attention

EDIT:
I made this tab, hope it can be useful Nice One
Paste it on note pad for better view!!

intro:
G|-------------------------|--------------------------|-------------------------|---------------------------|
d|-------------------------|--------------------------|-------------------------|---------------------------|
A|-------------------------|--------------------------|-------------------------|---------------------------|
E|-0-0---7-7---5-5---7-7---|-0-0---7-7---5-5--9-7-7---|-0-0---7-7---5-5---7-7---|-5-4-5-4-5-4-5-4/7-7-7-7-7-|
Verse:
G|-------------------------------------------|
DI-------------------------------------------|
A|-------------------------------------------|
E|0---0-0--0-7---7-7--7-5---5-5--5-0---0-0--0|
Bridge:
G|-------------------------|--------------------------|
DI-------------------------|--------------------------|
A|-------------------------|--------------------------|
E|-0-0---7-7---5-5---7-7---|-0-0---7-7---5-5--9-7-----|
Verse:
G|-------------------------------------------|
DI-------------------------------------------|
A|-------------------------------------------|
E|0---0-0--0-7---7-7--7-5---5-5--5-0---0-0--0|
Pre-chorus:
G|---------------------------------|----------------------------------|--------------------------------|----------------------------------|
DI---------------------------------|----------------------------------|--------------------------------|-----------------------------6-7-9|
A|---------------------------------|----------------------------------|--------------------------------|-----------------------6-7-9------|
E|2-2-2-2-2-2-2-2-2-2-2-2-2\7---5--|4-4-4-4-4-4-4-4-4-4-4-4-4-4\9--7--|5-5-5-5-5-5-5-5-5-5-5-5-5-5-5-5-|7-7-7-7-7-7-7-7-7--7-9------------|
Chorus:
G|--------------------------------|--------------------------------|----------------------------------|----------------------------------|
DI--------------------------------|--------------------------------|----------------------------------|----------------------------------|
A|--------------------------------|--------------------------------|----------------------------------|----------------------------------|
E|0-0-0-0-0-0-0-0-0-0-0-0-0-0-0-0-|2-2-2-2-2-2-2-2-2-2-2-2-2-2-2-2-|4-4-4-4-4-4-4-4-4-4-4-4-4-4-4-4-4-|5-5-5-5-5-5-5-5-5-5--7-5-4-5-4-2-0|

G|--------------------------------|--------------------------------|----------------------------------|----------------------------------|
DI--------------------------------|--------------------------------|----------------------------------|----------------------------------|
A|--------------------------------|--------------------------------|----------------------------------|----------------------------------|
E|0-0-0-0-0-0-0-0-0-0-0-0-0-0-0-0-|2-2-2-2-2-2-2-2-2-2-2-2-2-2-2-2-|4-4-4-4-4-4-4-4-4-4-4-4-4-4-4-4-4-|5-5-5-5-5-5-5-5-5-7-7-7-7-7-7-7-7-|

Repeat intro
Repeat Verse
Repeat Pre-chorus
Repeat Chorus

Outro:
G|-------------------------------|--------------------------------|--------------------------------|--------------------------|
DI-------------------------------|--------------------------------|--------------------------------|--------------------------|
A|4-4-4-4-4-4-4-4-4-4-4-4-4-4-4-4|-6-6-6-6-6-6-6-6-6-6-6-6-6-6-6-6|-7-7-7-7-7-7-7-7-7-7-7-7-7-7-7-7|-9-----9----9-----9---9--9|
E|-------------------------------|--------------------------------|--------------------------------|--------------------------|

G|-------------------------------|--------------------------------|--------------------------------|---------------------------------|------------------------------------------------|
DI-------------------------------|--------------------------------|--------------------------------|---------------------------------|------------------------------------------------|
A|4-4-4-4-4-4-4-4-4-4-4-4-4-4-4-4|-6-6-6-6-6-6-6-6-6-6-6-6-6-6-6-6|-7-7-7-7-7-7-7-7-7-7-7-7-7-7-7-7|-9-9-9-9-9-9-9-9-9-9-9-9-9-9-9-9\|16-16-16-16-16-16-16-16-16-16-16-16-16-16-16-16-|
E|-------------------------------|--------------------------------|--------------------------------|---------------------------------|------------------------------------------------|

G|----------------|------|------|------|-------------------|
DI----------6-7-9-|------|------|------|-------------------|
A|-----6-7-9------|------|------|------|-------------------|
E|-7-9------------|-0---0|-2---2|-4---4|-5---7-5-4-5-4-2-0-|

G|------|------|------|-------------------|
DI------|------|------|-------------------|
A|------|------|------|-------------------|
E|-0---0|-2---2|-4---4|-5---7-7-7-7-7-7-7-|

Repeat Chorus
Repeat intro



[request] koi no jajitsu Signatureqb
[request] koi no jajitsu Sh_cov15
Back to top Go down

Re: [request] koi no jajitsu
Posted on Sun Apr 29, 2012 12:28 am

muya

muya

Indie Artist
Indie Artist
https://www.dlmarket.jp/manufacture/index.php?consignors_id=1705
Last time i saw this topic no one tabbed Koi no Kajitsu..
When i came back Joseph already tabbed it.. [request] koi no jajitsu 922879

Well, i just made the bass tab gp version for koi no kajitsu..
The tab is not very different than Joseph's tab..

Koi no Kajitsu Bass Tab

Enjoy..!!

Back to top Go down

Re: [request] koi no jajitsu
Posted on Tue Jun 19, 2012 7:30 am

Athenagiku

Athenagiku

Caless Student
Caless Student
http://pinkyantigo.webs.com
how about the chords??



[request] koi no jajitsu DV3qTyS
Back to top Go down