Space Ranger - Tab, Lyrics, and Chords
Posted on Mon Apr 26, 2010 2:34 pm

ren-00

ren-00

Caless Student
Caless Student

Hello there.

Had some free time last weekend so here's one of my favorite songs from Scandal. Its not 100% accurate but it sounds pretty close.
Smile

For some reasons, I just couldn't make the chords properly align with the tab when I post it so please bear with it.
And as usual, please paste in Notepad for better view. Hope you enjoy. And in case you have any request for tabbing, let me know as I might do it in my free time.

Code:


-----------------------------------------------------------------
Space Ranger - SCANDAL
-----------------------------------------------------------------
Tabbed by: ren-00 email: rourensou@gmail.com
          for Scandal Heaven forums
          @ http://scandal-heaven.forumotion.com


Tuning:Standard


Tablature Notation

  h - hammer on
  p - pull off
  x - play 'note' with heavy muting
  ^ - means downstroke strum motion
  v - means upstroke strum motion
  / - slide up
  \ - slide down
  v - vibrato (or ~)

I suggest you use the natural harmonics produced by lightly
touching the strings in the 7th fret or by using the B chord
for the muted rhythm slash in the intro.

E|-(7)*----|
B|-(7)*----|
G|-(8)*----|
D<-(9)*----|
A|-(9)*----|
E|-(7)*----|


Guitar 1 - Mami
Guitar 2 - Haruna



PRE INTRO:

E|-------------------------------------|
B|---x-x-x-----------------------------|
G|---x-x-x-----------------------------| (repeat 8x)
D<---x-x-x-----------------------------|
A|---x-x-x-----------------------------|
E|---x-x-x-----------------------------|


INTRO: 2X

  Guitar 1

      B                D        E          B                D        E

E|----------10------|------------------|----------10------|-------------------|
B|---12-12--10------|--10--10---9------|---12-12--10------|--10--10---9-------|
G|---11-11----------|---7---9---9------|---11-11----------|---7---9---9-------|
D<------------------|------------------|------------------|-------------------|
A|------------------|------------------|------------------|-------------------|
E|------------------|------------------|------------------|-------------------|
 |
 |
 | Guitar 2
 |
E|------------------|------------------|------------------|-------------------|
B|------------------|------------------|------------------|-------------------|
G|------------------|---7-x-7---9------|------------------|---7-x-7---9-------|
D<---9-9---9-9-9-x--|---7-x-7---9------|---9-9---9-9-9-x--|---7-x-7---9-------|
A|---9-9---9-9-9-x--|---5-x-5---7------|---9-9---9-9-9-x--|---5-x-5---7-------|
E|---7-7---7-7-7-x--|------------------|---7-7---7-7-7-x--|-------------------|


VERSE 1

  Hajimari          no CHAIMU ga ima    kikoete kita      desho ?
 
    B                                                          D      E
E|------------------|------------------|------------------|-------------------|
B|------------------|------------------|------------------|-------------------|
G|------------------|------------------|------------------|---7-x-7---9-------|
D<------------------|------------------|------------------|---7-x-7---9-------|
A|------------------|------------------|------------------|---5-x-5---7-------|
E|------------------|------------------|------------------|-------------------|

 
  Hajikeru          ryuusei no mure    tobidasu    MELODY

    B                                    B
E|------------------|------------------|------------------|-------------------|
B|------------------|------------------|------------------|-------------------|
G|------------------|------------------|------------------|-------------------|
D<------------------|------------------|-9-9-9-9-9-9-9-9--|-9-9-9-9-9-9-9-9---|
A|------------------|------------------|-9-9-9-9-9-9-9-9--|-9-9-9-9-9-9-9-9---|
E|------------------|------------------|-7-7-7-7-7-7-7-7--|-7-7-7-7-7-7-7-7---|

 

  Hora                                  Hmmmm

  Guitar 1

      B                D        E          B                D        E
E|----------10------|------------------|----------10------|-------------------|
B|---12-12--10------|--10--10---9------|---12-12--10------|--10--10---9-------|
G|---11-11----------|---7---9---9------|---11-11----------|---7---9---9-------|
D<------------------|------------------|------------------|-------------------|
A|------------------|------------------|------------------|-------------------|
E|------------------|------------------|------------------|-------------------|
 |
 |
 |
 | Guitar 2
 |
E|------------------|------------------|------------------|-------------------|
B|------------------|------------------|------------------|-------------------|
G|------------------|---7-x-7---9------|------------------|---7-x-7---9-------|
D<---9-9---9-9-9-x--|---7-x-7---9------|---9-9---9-9-9-x--|---7-x-7---9-------|
A|---9-9---9-9-9-x--|---5-x-5---7------|---9-9---9-9-9-x--|---5-x-5---7-------|
E|---7-7---7-7-7-x--|------------------|---7-7---7-7-7-x--|-------------------|


VERSE 2


  ROKETTO            kara mioroshita      Kinsei no DISCO
 
    B                                                          D      E
E|------------------|------------------|------------------|-------------------|
B|------------------|------------------|------------------|-------------------|
G|------------------|------------------|------------------|---7-x-7/9---9-----|
D<------------------|------------------|------------------|---7-x-5/9---9-----|
A|------------------|------------------|------------------|---5-x-5/7---7-----|
E|------------------|------------------|------------------|-------------------|

 
  Ano ko to          Saa odorou ka          Konya wa party

    B                                    B
E|------------------|------------------|------------------|-------------------|
B|------------------|------------------|------------------|-------------------|
G|------------------|------------------|------------------|-------------------|
D<------------------|------------------|-9-9-9-9-9-9-9-9--|-9-9-9-9-9-9-9-9---|
A|------------------|------------------|-9-9-9-9-9-9-9-9--|-9-9-9-9-9-9-9-9---|
E|------------------|------------------|-7-7-7-7-7-7-7-7--|-7-7-7-7-7-7-7-7---|

 

REFRAIN:

  Sousa Ima shikanai tobidasou yo      Miracle        guitar

      E    B          A      A B          E    B            D
E|------------------|------------------|------------------|-------------------|
B|------------------|------------------|------------------|-------------------|
G|---9-9------------|------------------|---9-9------------|---7---------------|
D<---9-9---9-9------|---7-7---7/9--9---|---9-9---9-9------|---7---------------|
A|---7-7---9-9------|---7-7---7/9--9---|---7-7---9-9------|---5---------------|
E|---------7-7------|---5-5---5/7--7---|---------7-7------|-------------------|

 
              narasu no sa
    D
E|-------------------|
B|-------------------|
G|--7-7-7-7--7-7-7-7-|
D<--7-7-7-7--7-7-7-7-|
A|--5-5-5-5--5-5-5-5-|
E|-------------------|


 
(REPEAT INTRO)


VERSE 3


  Kaseijin          no FURI wo shiteru    Doseijintachi  ga
   
    B                                                          D      E
E|------------------|------------------|------------------|-------------------|
B|------------------|------------------|------------------|-------------------|
G|------------------|------------------|------------------|---7-x-7/9---9-----|
D<------------------|------------------|------------------|---7-x-7/9---9-----|
A|------------------|------------------|------------------|---5-x-5/7---7-----|
E|------------------|------------------|------------------|-------------------|

 
  Gin iro            no PIKAPIKA NEON wo yoru ni    chiribameru

    B                                    B
E|------------------|------------------|------------------|-------------------|
B|------------------|------------------|------------------|-------------------|
G|------------------|------------------|------------------|-------------------|
D<------------------|------------------|-9-9-9-9-9-9-9-9--|-9-9-9-9-9-9-9-9---|
A|------------------|------------------|-9-9-9-9-9-9-9-9--|-9-9-9-9-9-9-9-9---|
E|------------------|------------------|-7-7-7-7-7-7-7-7--|-7-7-7-7-7-7-7-7---|



  Guitar 1 (w/light wah fx)
  Hora                                     

      B                                      D        E         
E|----------7-7---------7-7---------7---|----------7-7---------7-7---------7--|
B|----7-----7-7---7-----7-7---------7---|----7-----7-7---7-----7-7---------7--|
G|----9b(11)------9b(11)------9b(11)----|----9b(11)------9b(11)------9b(11)---|
D<--------------------------------------|-------------------------------------|
A|--------------------------------------|-------------------------------------|
E|--------------------------------------|-------------------------------------|
 |
 |
 |
 | Guitar 2
 |
E|--------------------------------------|-------------------------------------|
B|--------------------------------------|-------------------------------------|
G|--------------------------------------|-----7--x--7/9---9-------------------|
D<-------9--9---9--9--9-x---------------|-----7--x--7/9---9-------------------|
A|-------9--9---9--9--9-x---------------|-----5--x--5/7---7-------------------|
E|-------7--7---7--7--7-x---------------|-------------------------------------|


  Hmmm

        B                                    D        E         

E|----------7-7---------7-7---------7---|----------7-7------------------------|
B|----7-----7-7---7-----7-7---------7---|----7-----7-7-------10~~~~~----------|
G|----9b(11)------9b(11)------9b(11)----|----9b(11)------9----9~~~~~----------|
D<--------------------------------------|-------------------------------------|
A|--------------------------------------|-------------------------------------|
E|--------------------------------------|-------------------------------------|
 |
 |
 |
 | Guitar 2
 |
E|--------------------------------------|-------------------------------------|
B|--------------------------------------|-------------------------------------|
G|--------------------------------------|-----7--x--7/9---9-------------------|
D<-------9--9---9--9--9-x---------------|-----7--x--7/9---9-------------------|
A|-------9--9---9--9--9-x---------------|-----5--x--5/7---7-------------------|
E|-------7--7---7--7--7-x---------------|-------------------------------------|


VERSE 4

    Donna ni        SUPIIDO ihan no          HADE na UFO mo
                                                              D    E

E|------------------|------------------|------------------|-------------------|
B|------------------|------------------|------------------|-------------------|
G|------------------|------------------|------------------|---7-x-7/9---9-----|
D<------------------|------------------|------------------|---7-x-7/9---9-----|
A|------------------|------------------|------------------|---5-x-5/7---7-----|
E|------------------|------------------|------------------|-------------------|

 
  Sawaide            tanoshinde (Hey !!) Sakende      abarete

    B                                    B
E|------------------|------------------|------------------|-------------------|
B|------------------|------------------|------------------|-------------------|
G|------------------|------------------|------------------|-------------------|
D<------------------|------------------|-9-9-9-9-9-9-9-9--|-9-9-9-9-9-9-9-9---|
A|------------------|------------------|-9-9-9-9-9-9-9-9--|-9-9-9-9-9-9-9-9---|
E|------------------|------------------|-7-7-7-7-7-7-7-7--|-7-7-7-7-7-7-7-7---|




REFRAIN 2:

  Sousa uchuu no      SUTEEJI ni tatte    hoshi no RAITO wo            abite
   
      E    B            A      B          E    B          D
E|------------------|------------------|------------------|-------------------|
B|------------------|------------------|------------------|-------------------|
G|---9-9------------|------------------|---9-9------------|-7-7-7-7--7-7-7-7--|
D<---9-9---9-9------|---7-7---7/9--9---|---9-9---9-9------|-7-7-7-7--7-7-7-7--|
A|---7-7---9-9------|---7-7---7/9--9---|---7-7---9-9------|-5-5-5-5--5-5-5-5--|
E|---------7-7------|---5-5---5/7--7---|---------7-7------|-------------------|

 
  Mawaru MIRAA        BOORU no arashi Kagayake            motto


      E    B            A      B          E    B          D
E|------------------|------------------|------------------|-------------------|
B|------------------|------------------|------------------|-------------------|
G|---9-9------------|------------------|---9-9------------|-7-7-7-7--7-7-7-7--|
D<---9-9---9-9------|---7-7---7/9--9---|---9-9---9-9------|-7-7-7-7--7-7-7-7--|
A|---7-7---9-9------|---7-7---7/9--9---|---7-7---9-9------|-5-5-5-5--5-5-5-5--|
E|---------7-7------|---5-5---5/7--7---|---------7-7------|-------------------|



BRIDGE:

 

  Guitar 1
  Negai              todoku            hazusa
                                 
    A                  B                  E                                 
E|------------------|------------------|------------------|-------------------|
B|------------------|------------------|------------------|-------------------|
G|------------------|------------------|-----9/--11/--13/-|-14\--13\--11/--13-|
D<-7-7-7-7--7-7-7-7-|-9-9-9-9--9-9-9-9-|-----x----x----x--|--x----x-----x---x-|
A|-7-7-7-7--7-7-7-7-|-9-9-9-9--9-9-9-9-|-----7/---9/--11/-|-12\--11\---9/--11-|
E|-5-5-5-5--5-5-5-5-|-7-7-7-7--7-7-7-7-|------------------|-------------------|
 |
 |
 | Guitar 2
 |
E|------------------|------------------|------------------|-------------------|
B|------------------|------------------|------------------|-------------------|
G|------------------|------------------|-9-9-9-9--9-9-9-9-|-9-9-9-9--9-9-9-9--|
D<-7-7-7-7--7-7-7-7-|-9-9-9-9--9-9-9-9-|-9-9-9-9--9-9-9-9-|-9-9-9-9--9-9-9-9--|
A|-7-7-7-7--7-7-7-7-|-9-9-9-9--9-9-9-9-|-7-7-7-7--7-7-7-7-|-7-7-7-7--7-7-7-7--|
E|-5-5-5-5--5-5-5-5-|-7-7-7-7--7-7-7-7-|------------------|-------------------|


  Guitar 1
  Kitto        kimi  ni                deaeru
                                                          (this part w/ wah fx)
    A                  B                  C#m                                 
E|------------------|------------------|------------------|-------------------|
B|------------------|------------------|------------------|-------------------|
G|------------------|------------------|-6-6-6-6--6-6-6-6-|-------------------|
D<-7-7-7-7--7-7-7-7-|-9-9-9-9--9-9-9-9-|-6-6-6-6--6-6-6-6-|-6-4-----6-4-------|
A|-7-7-7-7--7-7-7-7-|-9-9-9-9--9-9-9-9-|-4-4-4-4--4-4-4-4-|-----6-4-----6-4---|
E|-5-5-5-5--5-5-5-5-|-7-7-7-7--7-7-7-7-|------------------|-------------------|
 |
 |
 | Guitar 2
 |
E|------------------|------------------|------------------|-------------------|
B|------------------|------------------|------------------|-------------------|
G|------------------|------------------|-6-6-6-6--6-6-6-6-|-6-6-6-6--6-6-6-6--|
D<-7-7-7-7--7-7-7-7-|-9-9-9-9--9-9-9-9-|-6-6-6-6--6-6-6-6-|-6-6-6-6--6-6-6-6--|
A|-7-7-7-7--7-7-7-7-|-9-9-9-9--9-9-9-9-|-4-4-4-4--4-4-4-4-|-4-4-4-4--4-4-4-4--|
E|-5-5-5-5--5-5-5-5-|-7-7-7-7--7-7-7-7-|------------------|-------------------|


 
  Guitar 1
  Futo          miageta              hoshi mo

    A                  B                  E                                 
E|------------------|------------------|------------|-------------------------|
B|------------------|------------------|------------|-------------------------|
G|------------------|------------------|-9/-11/-13/-|-16\-14\-13/-14/-13/-11--|
D<-7-7-7-7--7-7-7-7-|-9-9-9-9--9-9-9-9-|-x---x---x--|--x---x---x---x---x---x--|
A|-7-7-7-7--7-7-7-7-|-9-9-9-9--9-9-9-9-|-7/--9/-11/-|-14\-12\-11/-12/-11/--9--|
E|-5-5-5-5--5-5-5-5-|-7-7-7-7--7-7-7-7-|------------|-------------------------|
 |
 |
 | Guitar 2
 |
E|------------------|------------------|------------------|-------------------|
B|------------------|------------------|------------------|-------------------|
G|------------------|------------------|-9-9-9-9--9-9-9-9-|-9-9-9-9--9-9-9-9--|
D<-7-7-7-7--7-7-7-7-|-9-9-9-9--9-9-9-9-|-9-9-9-9--9-9-9-9-|-9-9-9-9--9-9-9-9--|
A|-7-7-7-7--7-7-7-7-|-9-9-9-9--9-9-9-9-|-7-7-7-7--7-7-7-7-|-7-7-7-7--7-7-7-7--|
E|-5-5-5-5--5-5-5-5-|-7-7-7-7--7-7-7-7-|------------------|-------------------|


Guitar 1 and 2

  KIRARI  to          kagayaita
    A                  B               
E|------------------|------------------|
B|------------------|------------------|
G|------------------|------------------|
D<-7-7-7-7--7-7-7-7-|-9-9-9-9--9-9-9-9-|
A|-7-7-7-7--7-7-7-7-|-9-9-9-9--9-9-9-9-|
E|-5-5-5-5--5-5-5-5-|-7-7-7-7--7-7-7-7-|



Instrumental/Solo

  Guitar 1

      E                G        A          E                G        A

E|----------15------|------------------|----------15------|-------------------|
B|---17-17--15------|--15--15--14------|---17-17--15------|--15--15---14------|
G|---16-16----------|--12--14--14------|---16-16----------|--12--14---14------|
D<------------------|------------------|------------------|-------------------|
A|------------------|------------------|------------------|-------------------|
E|------------------|------------------|------------------|-------------------|
 |
 |
 |
 | Guitar 2
 |
E|------------------|------------------|------------------|-------------------|
B|------------------|------------------|------------------|-------------------|
G|---9-9---9-9-9-x--|------------------|---9-9---9-9-9-x--|-------------------|
D<---9-9---9-9-9-x--|---5-x-5---7------|---9-9---9-9-9-x--|---5-x-5---7-------|
A|---7-7---9-9-9-x--|---5-x-5---7------|---7-7---7-7-7-x--|---5-x-5---7-------|
E|------------------|---3-x-3---5------|------------------|---3-x-3---5-------|


  Guitar 1

      E                G        A          E                G        A
                                                            (pick scrape)
E|----------15------|------------------|----------15------|-x-----------------|
B|---17-17--15------|--15--15--14------|---17-17--15------|---x---------------|
G|---16-16----------|--12--14--14------|---16-16----------|-----x-------------|
D<------------------|------------------|------------------|-------x-----------|
A|------------------|------------------|------------------|---------x---------|
E|------------------|------------------|------------------|-----------x-------|
 |
 |
 |
 | Guitar 2
 |
E|------------------|------------------|------------------|-------------------|
B|------------------|------------------|------------------|-------------------|
G|---9-9---9-9-9-x--|------------------|---9-9---9-9-9-x--|-------------------|
D<---9-9---9-9-9-x--|---5-x-5---7------|---9-9---9-9-9-x--|---5-x-5---7-------|
A|---7-7---9-9-9-x--|---5-x-5---7------|---7-7---7-7-7-x--|---5-x-5---7-------|
E|------------------|---3-x-3---5------|------------------|---3-x-3---5-------|



VERSE 5

    Sakasama ni        tondeite mo        yubi wo sasarete mo
                                                             
      B                  D      E          B                  D      E

E|------------------|------------------|------------------|-------------------|
B|------------------|------------------|------------------|-------------------|
G|------------------|---7-x-7---9------|------------------|---7-x-7---9-------|
D<---9-9---9-9-9-x--|---7-x-7---9------|---9-9---9-9-9-x--|---7-x-7---9-------|
A|---9-9---9-9-9-x--|---5-x-5---7------|---9-9---9-9-9-x--|---5-x-5---7-------|
E|---7-7---7-7-7-x--|------------------|---7-7---7-7-7-x--|-------------------|


    Chitto mo          kizuki wa shinai SUPEEPUURENJAA

      B                  D      E          B                  D     

E|------------------|------------------|------------------|-------------------|
B|------------------|------------------|------------------|-------------------|
G|------------------|---7-x-7---9------|------------------|--7-7--7-7--7-7----|
D<---9-9---9-9-9-x--|---7-x-7---9------|---9-9---9-9-9-x--|--7-7--7-7--7-7----|
A|---9-9---9-9-9-x--|---5-x-5---7------|---9-9---9-9-9-x--|--5-5--5-5--5-5----|
E|---7-7---7-7-7-x--|------------------|---7-7---7-7-7-x--|-------------------|



REFRAIN 3:

  Sousa ima shika nai  Tobidasunda      [SUTAAPYONJANPU]
   
      E    B            A      B          E    B          D
E|------------------|------------------|------------------|-------------------|
B|------------------|------------------|------------------|-------------------|
G|---9-9------------|------------------|---9-9------------|-7-7-7-7--7-7-7-7--|
D<---9-9---9-9------|---7-7---7/9--9---|---9-9---9-9------|-7-7-7-7--7-7-7-7--|
A|---7-7---9-9------|---7-7---7/9--9---|---7-7---9-9------|-5-5-5-5--5-5-5-5--|
E|---------7-7------|---5-5---5/7--7---|---------7-7------|-------------------|

 
  Koko de yuuki dashite tobidasunda      Akarui hoshi e


      E    B            A      B          E    B          D
E|------------------|------------------|------------------|-------------------|
B|------------------|------------------|------------------|-------------------|
G|---9-9------------|------------------|---9-9------------|-7-----------------|
D<---9-9---9-9------|---7-7---7/9--9---|---9-9---9-9------|-7-----------------|
A|---7-7---9-9------|---7-7---7/9--9---|---7-7---9-9------|-5-----------------|
E|---------7-7------|---5-5---5/7--7---|---------7-7------|-------------------|

                                    Aw!!!!!!!

    D E    D E    D E    D E    D E
   
E|-------------------------------------|
B|-------------------------------------|
G|--7-9-9--7-9-9--7-9-9--7-9-9--7-9-9--|
D<--7-9-9--7-9-9--7-9-9--7-9-9--7-9-9--|
A|--5-7-7--5-7-7--5-7-7--5-7-7--5-7-7--|
E|-------------------------------------|



    ICHIDO SHIKANAI JINSEI HORA          MAE WO MUITE IKOU YO
 
    A B          A B    A B    A B        A B          A B    A B    A B
E|-------------------------------------|--------------------------------------|
B|-------------------------------------|--------------------------------------|
G|-------------------------------------|--------------------------------------|
D<-7/9--9-9-9-9--7/9-9--7/9-9--7/9-9-9-|--7/9--9-9-9-9--7/9-9--7/9-9--7/9-9-9-|
A|-7/9--9-9-9-9--7/9-9--7/9-9--7/9-9-9-|--7/9--9-9-9-9--7/9-9--7/9-9--7/9-9-9-|
E|-5/7--7-7-7-7--5/7-7--5/7-7--5/7-7-7-|--5/7--7-7-7-7--5/7-7--5/7-7--5/7-7-7-|


  ITSUKA WA TADORI TSUKERU HAZUSA          NIHON MADE HASHIRINUKETE YUKUZO

    A B          A B    A B    A B        A B          A B    A B    A B
E|-------------------------------------|--------------------------------------|
B|-------------------------------------|--------------------------------------|
G|-------------------------------------|--------------------------------------|
D<-7/9--9-9-9-9--7/9-9--7/9-9--7/9-9-9-|--7/9--9-9-9-9--7/9-9--7/9-9--7/9-9-9-|
A|-7/9--9-9-9-9--7/9-9--7/9-9--7/9-9-9-|--7/9--9-9-9-9--7/9-9--7/9-9--7/9-9-9-|
E|-5/7--7-7-7-7--5/7-7--5/7-7--5/7-7-7-|--5/7--7-7-7-7--5/7-7--5/7-7--5/7-7-7-|

 
    Guitar 1

E|-------------------------------------|--------------------------------------|
B|-------------------------------------|--------------------------------------|
G|-------------------------------------|--6-7--9-9------1---------------------|
D<-------------------------------------|--6-7--9-9------2---------------------|
A|------------2--0------ --------------|--4-5--7-7------2---------------------|
E|---0--2--4--------4--2- -------------|----------------0---------------------|
 |
 |  Guitar 2
 |
E|-------------------------------------|--------------------------------------|
B|-------------------------------------|--------------------------------------|
G|-------------------------------------|--6-7--9-9------1---------------------|
D<---------6--9--7--6--7---------------|--6-7--9-9------2---------------------|
A|---7--9------------------------------|--4-5--7-7------2---------------------|
E|-------------------------------------|----------------0---------------------|


------------------------------------------------------------------------------|
                                      END
------------------------------------------------------------------------------|













Last edited by ren-00 on Tue Apr 27, 2010 7:52 am; edited 2 times in total

Back to top Go down

Re: Space Ranger - Tab, Lyrics, and Chords
Posted on Mon Apr 26, 2010 4:42 pm

nekomimi190220

nekomimi190220

Mainstream Artist
Mainstream Artist
Arigatou! I've been waiting for this!

Back to top Go down

Re: Space Ranger - Tab, Lyrics, and Chords
Posted on Tue Apr 27, 2010 4:41 am

haritomi.denise

haritomi.denise

International Performer
International Performer
http://www.instagram.com/haritomi
Arigato~! Pinch




"...most people die never realizing the dream of their lives...”
Space Ranger - Tab, Lyrics, and Chords URT1EYY
Space Ranger - Tab, Lyrics, and Chords Mskdbd
l DeviantArt l l Tumblr l
Back to top Go down

Re: Space Ranger - Tab, Lyrics, and Chords
Posted on Tue Apr 27, 2010 3:21 pm

asuna

asuna

Indie Artist
Indie Artist
http://thebudgetgeek.blogspot.com
likes this

my fav song as well :D

Back to top Go down

Re: Space Ranger - Tab, Lyrics, and Chords
Posted on Sat May 01, 2010 5:50 pm

porcupine_tree

porcupine_tree

Mainstream Artist
Mainstream Artist
http://chris87.multiply.com
Oh yeah! Thanks ren, now I can finally play the opening riff Nice One my hats off to you for tabbing Space Ranger LOVE

Back to top Go down

Re: Space Ranger - Tab, Lyrics, and Chords
Posted on Wed May 12, 2010 6:49 am

chopstickattack

chopstickattack

Shiroten Performer
Shiroten Performer
WOW ...thanks a million ren! .....absolutely love this song! <3 LOVE Clap
could you tab secret base ? (only if you have the time) Shy

Back to top Go down

Re: Space Ranger - Tab, Lyrics, and Chords
Posted on Wed May 12, 2010 12:24 pm

yuujin_21

yuujin_21

Administrator
Administrator
Secret Base is already tabbed by tsunvun86 here,the chords.



"Bokaru HARUNA desu!"
"Gitaa MAMI desu!"
"Beesu TOMOMI desu!"
"Doraamusu RINA desu!"
Back to top Go down

Re: Space Ranger - Tab, Lyrics, and Chords
Posted on Fri May 14, 2010 6:23 pm

lamevil

lamevil

Indie Artist
Indie Artist
wow~! you even wrote the lyrics with the tabs~ thanks for the tabs/chords/lyrics all in one! pretty convenient for me though XD!

Back to top Go down

Re: Space Ranger - Tab, Lyrics, and Chords
Posted on Sat May 29, 2010 9:29 am


kyoshiro13

Caless Student
Caless Student
is there a tabs for bass?? Onion Pissed

Back to top Go down

Re: Space Ranger - Tab, Lyrics, and Chords
Posted on Mon May 31, 2010 10:47 am

ren-00

ren-00

Caless Student
Caless Student

Back to top Go down

Re: Space Ranger - Tab, Lyrics, and Chords
Posted on Wed Jun 02, 2010 7:17 am

loudormis

loudormis

Caless Student
Caless Student
thanks! great help..

Back to top Go down

Re: Space Ranger - Tab, Lyrics, and Chords
Posted on Wed Dec 01, 2010 12:25 pm

kaichi

kaichi

Caless Student
Caless Student
thanks for the chords! Praise last month i bought an electric guitar and scandal is the reason why i bought it and want to play all of their songs! Dance




"Missing something is part of what makes it a great memory." UHUH!
Back to top Go down

Re: Space Ranger - Tab, Lyrics, and Chords
Posted on Wed Dec 01, 2010 5:58 pm

SonicFiringZ

SonicFiringZ

Caless Student
Caless Student
thanks for the tabs and chords. will try it out tmr or something as it's late at my area right now .xD

Back to top Go down

Re: Space Ranger - Tab, Lyrics, and Chords
Posted on Mon Mar 21, 2011 9:17 pm

Yedz~

Yedz~

Mainstream Artist
Mainstream Artist
http://www.javawakkiz.deviantart.com
Sankyou! ~ now it's time to try it on my guitar! Evil Grin



Space Ranger - Tab, Lyrics, and Chords 302299_243065912402849_165499586826149_697986_7618561_n

Once you've seen them they will make your WHOLE LIFE better~
Back to top Go down

Re: Space Ranger - Tab, Lyrics, and Chords
Posted on Wed Mar 23, 2011 4:29 pm

snowboi

snowboi

Caless Student
Caless Student
Awesome! i just tried it. Thanks!



Space Ranger - Tab, Lyrics, and Chords Scandalosas
Back to top Go down