Doll Bass tab [Page 1 of 1]

Doll Bass tab
Posted on Wed Jun 23, 2010 4:12 pm


SourChicken

Shiroten Performer
Shiroten Performer
http://www.youtube.com/user/Bassection
You thanked this post! -
Thanks received by this post:

Message reputation : 100% (1 vote)

As close as I can be bothered getting it Whistle
http://www.ultimate-guitar.com/tabs/s/scandal/doll_btab.htm
Code:
0:12
|-----------| <|--      |-----| <|--
|-----------|  |Play 4  |-----|  |Then
|-----------|  |Times    |-----|  |This
|-5-7-5-7\--| <|--      |--7--| <|--

0:38
|------------------------------------------------|
|------------------------------------------------|
|--------5(x8)-7(x8)--------5(x8)-7(x7)----------|
|--7(x8)-------------7(x16)-------------33-33-5--|

|-------------------------------------|
|----3/2-0------12/11-9-------3/2 0---|
|--2----------9-------------2------2--|
|-------------------------------------|

0:58
|--------------------------------------------------|
|--13(x4)-14(x4)-16(x4)-14(x4)-13(x4)-11(x4)-13-9--|
|--------------------------------------------------|
|--------------------------------------------------|

|-------------------------------------------------------|
|--13(x4)-14(x4)-16-16-19-16/14-14(x3)-13(x4)-11(x4)-9--|
|-------------------------------------------------------|
|-------------------------------------------------------|

|------------| <|--
|------------|  |Play 2
|------------|  |Times
|--5-7-5-7\--| <|--

|--------------------------------------------------|
|--------------------------------------------------|
|--------5(x8)-7(x8)--------5(x8)-7(x7)------------|
|--7(x8)-------------7(x16)-------------33-33-5-7--|

1:39
|-------------------| <|--      |-------------------| <|--
|-------------------|  |Play 2  |-------------------|  |Then
|------7-7----------|  |Times    |------787----------|  |This
|--9-9-----7-7-5-7--| <|--      |--989-----787-5-7--| <|--

|-----------------------------|
|-----------------------------|
|-----------------------------|
|--3(x4)-5(x4)-55-33-55-33-5--|

|---------------------------------|
|---------------------------------|
|----------------/16--------------|
|--7-3-5-2-3-7-9------3(x8)-55-5--|

2:11
|------------------------------------------------|
|------------------------------------------------|
|--------5(x8)-7(x8)--------5(x8)-7(x8)----------|
|--7(x8)-------------7(x16)-------------33-33-5--|

|--------------------------------------|
|--------------------------------------|
|---------5(x16)-7(x16)-10(x8)-12(x8)--|
|--7(x16)------------------------------|

2:37
|--------------------------------------------------|  <|--
|--------------------------------------------------|  |
|------------------55-555-555-555-577-777-777-777--|  |
|--77-777-777-777-7--------------------------------|  |Play 2
                                                      |
|---------------------------------|                    |Times
|---------------------------------|                    |
|--71010-101010-101212-121212-12--|                    |
|---------------------------------|                  <|--

|--------------------------------------|
|--------------------------------------|
|---------5(x16)-7(x16)-10(x8)-12(x5)--|
|--7(x16)------------------------------|

|--------------------|
|--------------------|
|--------------------|
|--5-7-5-7----11-7\--|



Last edited by SourChicken on Sun Jul 04, 2010 4:49 pm; edited 1 time in total

Back to top Go down

Re: Doll Bass tab
Posted on Wed Jun 30, 2010 5:35 am


felixyukito

Indie Artist
Indie Artist
http://felixyukito.blogspot.com
Thanks sour Chicken!! this is indeed nice tab!.. gee.. *runs to take my bass*

Back to top Go down

Re: Doll Bass tab
Posted on Tue Aug 31, 2010 8:07 am


MadOrange

Shiroten Performer
Shiroten Performer
nyaaaaaaah~thank u for the tab desu! Amazed


_________________________________________________________________________________________________

                                                                                                                                            otakumi
Back to top Go down