ALONES [Chords&Tabs] [Page 1 of 1]

ALONES [Chords&Tabs]
Posted on Thu Aug 30, 2012 11:47 am


ハナビラ~

Indie Artist
Indie Artist



F Bb C A D A Bb C
F Bb C A D A Bb

Intro:
D C G Bb x2

Verse:
F C Bb C
F C G Bb

Pre-chorus:
D A Bb C
D A Bb C A

Chorus:
F Bb C A D A Bb C x2

Interlude:
D C G Bb x2

Verse:
F C Bb C
F C G Bb

Pre-chorus:
D A Bb C
D A Bb C A

Chorus:
F Bb C A D A Bb C x2

Bridge/Solo:
Dm F Bb A G C
D C G Bb x2

Chorus:
F Bb C A D A Bb C x5

Outro:
D C G Bb x2

Dm


Please copy into Notepad!
Intro/Interlude/Outro:
|-----------------------------------------17-17--15--20--13-------|
|--------------------12--13--15--17--18---------------------------|
|-7--9--10--12--14------------------------14-14--12--17--10-------|
|--------------------9---10--12--14--15---------------------------|
|-5--7--8---10--12------------------------------------------------|
|--------------------------------------------------------------------|

Solo:
|-----------------------------------------17-17--20--15--17--20b-20~-|
|--------------------12--13--15--17--18------------------------------|
|-7--9--10--12--14------------------------14-14--17--12--14----------|
|--------------------9---10--12--14--15------------------------------|
|-5--7--8---10--12---------------------------------------------------|
|--------------------------------------------------------------------|



Last edited by ~Tomami~ on Sat Sep 01, 2012 1:36 pm; edited 2 times in total


_________________________________________________________________________________________________
上がり下がり 嘆き笑い 生きる
Back to top Go down

Re: ALONES [Chords&Tabs]
Posted on Thu Aug 30, 2012 4:01 pm


fransserenity

Shiroten Performer
Shiroten Performer
Happy thx for the chord

Back to top Go down

Re: ALONES [Chords&Tabs]
Posted on Thu Mar 27, 2014 3:53 pm


Mitchan

International Performer
International Performer
http://www.wattpad.com/user/MitchanAnni
Thank u thank u so muuucchhh LOVE


_________________________________________________________________________________________________

                 Tears of Joy
Back to top Go down

Re: ALONES [Chords&Tabs]
Posted on Fri Mar 28, 2014 3:29 pm


xShellwin

Caless Student
Caless Student
do you have the lead tabs ? for the solo part or the chorus part

Back to top Go down