SCANDAL - Queens Are Trumps
Posted on Mon Oct 08, 2012 6:55 pm


jigoku79

International Performer
International Performer
http://alinea-mind.blogspot.com/
You thanked this post! -
Thanks received by this post:

Message reputation : 100% (2 votes)

SCANDAL - Queens Are Trumps
Lyrics: MAMI, Music: BU-NI,
Arrangement: BU-NI
Intro*:
E5
E5 G5 A5 E5 G E5
E5 G5 A5 E5 G E5 2x

1st verse**:
E5 G-A
E5 G-A
E5 G-A
E5 G E5 2x

Bridge:
A5 G#5 G5 E5
A5 G#5 G5 E5

Reff*:
E5 G5 A5 E5 G5 E5
E5 G5 A5 E5 G5 E5 2x

2nd verse:
E5 G-A
E5 G-A
E5 G-A
E5 G E5 2x

Bridge:
A5 G#5 G5 E5
A5 G#5 G E5

Reff*:
E5 G5 A5 E5 G5 E5
E5 G5 A5 E5 G5 E5 2x

Interlude:
~drums+voc~
E5 G5 A5 C5

Reff*:
E5 G5 A5 E5 G5 E5
E5 G5 A5 E5 G5 E5 2x

E5 G5 A5 E5 G5 E5
E5 G5 A5 E5 G5 E5 2x

E5 G5 E5
Code:
* reffrain/intro tab:
E----------------------------------------------
B----------------------------------------------
G----------------------------------------------
D----------------------------------------------
A---5/7-7-5--------------5/7-7-5---------------
E-----------7-6p5-0-3-5-----------7-6p5-0-3-0--

** 1st verses-lead guitar tab
E------------------------------------------------------------3---------
B---3-3-3/5-5-------3-3-3/5-5-------3-3-3/5-5--------3-3-3h5---5-------
G---2-2-2/4-4--0-2--2-2-2/4-4--0-2--2-2-2/4-4---0-2--2-2---------------
D----------------------------------------------------------------------
A----------------------------------------------------------------------
E----------------------------------------------------------------------

E----------------------------------------------------------------------
B---3-3-3/5-5--------3-3-3/5-5--------3-3-3/5-5--------5-3-------------
G---2-2-2/4-4---0-2--2-2-2/4-4---0-2--2-2-2/4-4---0-2------4-2---------
D--------------------------------------------------------------2-5--2--
A----------------------------------------------------------------------
E----------------------------------------------------------------------
~Phew... ...Oh s**t!..


_________________________________________________________________________________________________

http://alinea-mind.blogspot.com/

...経験って苦い
ものでしょう? (SCANDAL- Pride)
失敗しても、当たり前...成功した、男前...
Back to top Go down

Re: SCANDAL - Queens Are Trumps
Posted on Tue Oct 09, 2012 2:17 am


haritomi.denise

International Performer
International Performer
http://www.instagram.com/haritomi
awesome~! thanks jigoku~! Onion XD


_________________________________________________________________________________________________

"...most people die never realizing the dream of their lives...”


l DeviantArt ll Tumblr l
Back to top Go down

Re: SCANDAL - Queens Are Trumps
Posted on Wed Oct 10, 2012 1:56 am


anchiel

International Performer
International Performer
Nice one, jigoku! Nice One I've been waiting for this! Thanks!

Back to top Go down

Re: SCANDAL - Queens Are Trumps
Posted on Sat Oct 13, 2012 7:36 pm


canta_mami27

Caless Student
Caless Student
sugoi!!!
thanks for the chords and tabs~


_________________________________________________________________________________________________
 LoveJUST ADMIT IT...YOU COULDN'T STOP LOVING HERLove 
Back to top Go down

Re: SCANDAL - Queens Are Trumps
Posted on Sun Oct 21, 2012 4:47 pm


Andika

SPAMMER
SPAMMER
Clap cool thanks

Back to top Go down

Re: SCANDAL - Queens Are Trumps
Posted on Sat Oct 27, 2012 7:18 am


HarunaHolic

Mainstream Artist
Mainstream Artist
Thank you !! Nice One


_________________________________________________________________________________________________
Back to top Go down

Re: SCANDAL - Queens Are Trumps
Posted on Sun Mar 31, 2013 4:14 am


tuvelink

Caless Student
Caless Student
awesome thank you...!!!!!

Back to top Go down

Re: SCANDAL - Queens Are Trumps
Posted on Sun Mar 23, 2014 5:00 pm


Mitchan

International Performer
International Performer
http://www.wattpad.com/user/MitchanAnni
OMG Finally i reached level to play this!! Awesomw chords and tabs!!! Thank u Jigoku san!! Praise


_________________________________________________________________________________________________

                 Tears of Joy
Back to top Go down