Koi no Kajitsu Tab [Page 1 of 1]

Koi no Kajitsu Tab
Posted on Tue Apr 27, 2010 11:48 am


ren-00

Caless Student
Caless Student
Here's another tab of one of their old songs. Hope you enjoy. (paste in Notepad for better view)


Code:

------------------------------------------------------------------------------|
Koi no Kajitsu - SCANDAL
------------------------------------------------------------------------------|
Tabbed by: ren-00 email: rourensou@gmail.com
          for Scandal Heaven forums
          @ http://scandal-heaven.forumotion.com


Tuning:Standard

Tablature Notation

 
  ^ - means downstroke strum motion
  v - means upstroke strum motion
  x - play 'note' with heavy muting


For the Intro and Verses (and some other parts), I just placed the entire chord
fingering (because of my lazyness) and it is up to the player which strings to
strum while doing the down/upstroke strum motion.


Just a guess:
Guitar 1 - Mami
Guitar 2 - Haruna
Guitar 3 - Ren :-)

INTRO:

Guitar 1 & 2

    E      B        A        B            E      B        A        C#  B
    ^ v ^  v ^ v ^  v ^ v ^  v ^ v ^ v    ^ v ^  v ^ v ^  v ^ v ^  v  ^ v ^ v

E|--7-7-x--7-7-7-x--5-5-5-x--7-7-7-x-x-|--7-7-x--7-7-7-x--5-5-5-x--9--x-7-7-x-|
B|--9-9-x--7-7-7-x--5-5-5-x--7-7-7-x-x-|--9-9-x--7-7-7-x--5-5-5-x--9--x-7-7-x-|
G|--9-9-x--8-8-8-x--6-6-6-x--8-8-8-x-x-|--9-9-x--8-8-8-x--6-6-6-x--10-x-8-8-x-|
D<--9-9-x--9-9-9-x--7-7-7-x--9-9-9-x-x-|--9-9-x--9-9-9-x--7-7-7-x--11-x-9-9-x-|
A|--7-7-x--9-9-9-x--7-7-7-x--9-9-9-x-x-|--7-7-x--9-9-9-x--7-7-7-x--11-x-9-9-x-|
E|---------7-7-7-x--5-5-6-x--7-7-7-x-x-|---------7-7-7-x--5-5-5-x--9--x-7-7-x-|

    E      B        A        B            A G#  A  G# A  G# A  G# B
    ^ v ^  v ^ v ^  v ^ v ^  v ^ v ^ v    ^  v  ^  v  ^  v  ^  v  ^ v ^ v ^ ^

E|--7-7-x--7-7-7-x--5-5-5-x--7-7-7-x-x-|------------------------------------7-|
B|--9-9-x--7-7-7-x--5-5-5-x--7-7-7-x-x-|------------------------------------7-|
G|--9-9-x--8-8-8-x--6-6-6-x--8-8-8-x-x-|------------------------------------Rolling Eyes
D<--9-9-x--9-9-9-x--7-7-7-x--9-9-9-x-x-|--7--6--7--6--7--6--7--6--9-9-9-9-9-9-|
A|--7-7-x--9-9-9-x--7-7-7-x--9-9-9-x-x-|--7--6--7--6--7--6--7--6--9-9-9-9-9-9-|
E|---------7-7-7-x--5-5-6-x--7-7-7-x-x-|--5--4--5--4--5--4--5--4--7-7-7-7-7---|

VERSE 1

1. Sekai wa konna ni mo  hiroi no ni    Aru hi kimi  deaeta kiseki
2. Kimi no kotoba no hitotsu hitotsu ni  Taishita imi nanka nai keredo

      E                B                  A                E
           
E|--x-7-x-7-x-7-x-7--x-7-x-7-x-7-x-7--|-x-5-x-5-x-5-x-5--x-7-x-7-x-7-x-7------|
B|--x-9-x-9-x-9-x-9--x-7-x-7-x-7-x-7--|-x-5-x-5-x-5-x-5--x-9-x-9-x-9-x-9------|
G|--x-9-x-9-x-9-x-9--x-8-x-8-x-8-x-8--|-x-6-x-6-x-6-x-6--x-9-x-9-x-9-x-9------|
D<--x-9-x-9-x-9-x-9--x-9-x-9-x-9-x-9--|-x-7-x-7-x-7-x-7--x-9-x-9-x-9-x-9------|
A|--x-7-x-7-x-7-x-7--x-9-x-9-x-9-x-9--|-x-7-x-7-x-7-x-7--x-7-x-7-x-7-x-7------|
E|-------------------x-7-x-7-x-7-x-7--|-x-5-x-5-x-5-x-5-----------------------|


  Kagiri naku chiisana unmei de        Kagiri naku ookina kono kimochi
  Sasayaku you na itsumo no koe ni   Boku wa anshin shiteiru’n da
   
      E                B                  A                E
         
E|--x-7-x-7-x-7-x-7--x-7-x-7-x-7-x-7--|-x-5-x-5-x-5-x-5--x-7-x-7--7-----------|
B|--x-9-x-9-x-9-x-9--x-7-x-7-x-7-x-7--|-x-5-x-5-x-5-x-5--x-9-x-9--9-----------|
G|--x-9-x-9-x-9-x-9--x-8-x-8-x-8-x-8--|-x-6-x-6-x-6-x-6--x-9-x-9--9-----------|
D<--x-9-x-9-x-9-x-9--x-9-x-9-x-9-x-9--|-x-7-x-7-x-7-x-7--x-9-x-9--9-----------|
A|--x-7-x-7-x-7-x-7--x-9-x-9-x-9-x-9--|-x-7-x-7-x-7-x-7--x-7-x-7--7-----------|
E|-------------------x-7-x-7-x-7-x-7--|-x-5-x-5-x-5-x-5-----------------------|

Pre-VERSE 2

    E      B        A        B            E      B        A          B
 
E|--7-7-x--7-7-7-x--5-5-5-x--7-7-7-x-x-|--7-7-x--7-7-7-x--5-5-5--5-5--7-7-----|
B|--9-9-x--7-7-7-x--5-5-5-x--7-7-7-x-x-|--9-9-x--7-7-7-x--5-5-5--5-5--7-7-----|
G|--9-9-x--8-8-8-x--6-6-6-x--8-8-8-x-x-|--9-9-x--8-8-8-x--6-6-6--6-6--8-8-----|
D<--9-9-x--9-9-9-x--7-7-7-x--9-9-9-x-x-|--9-9-x--9-9-9-x--7-7-7--7-7--9-9-----|
A|--7-7-x--9-9-9-x--7-7-7-x--9-9-9-x-x-|--7-7-x--9-9-9-x--7-7-7--7-7--9-9-----|
E|---------7-7-7-x--5-5-6-x--7-7-7-x-x-|---------7-7-7-x--5-5-5--5-5--7-7-----|


VERSE 2:

 
    Guitar 1
  (let ring)

    Mawaru mawaru kisetsu no tokei no   SPEED ga dandan hayaku naru
      E                B                  A                E
 
E|----7----------------7--------------|---5----------------7------------------|
B|----9----------------7--------------|---5----------------9------------------|
G|----9----------------8--------------|---6----------------9------------------|
D<----9----------------9--------------|---7----------------9------------------|
A|------------------------------------|---------------------------------------|
E|------------------------------------|---------------------------------------|
 |
 | 
 |  Guitar 2
 |   
 |       
E|--x-7-x-7-x-7-x-7--x-7-x-7-x-7-x-7--|-x-5-x-5-x-5-x-5--x-7-x-7-x-7-x-7------|
B|--x-9-x-9-x-9-x-9--x-7-x-7-x-7-x-7--|-x-5-x-5-x-5-x-5--x-9-x-9-x-9-x-9------|
G|--x-9-x-9-x-9-x-9--x-8-x-8-x-8-x-8--|-x-6-x-6-x-6-x-6--x-9-x-9-x-9-x-9------|
D<--x-9-x-9-x-9-x-9--x-9-x-9-x-9-x-9--|-x-7-x-7-x-7-x-7--x-9-x-9-x-9-x-9------|
A|--x-7-x-7-x-7-x-7--x-9-x-9-x-9-x-9--|-x-7-x-7-x-7-x-7--x-7-x-7-x-7-x-7------|
E|-------------------x-7-x-7-x-7-x-7--|-x-5-x-5-x-5-x-5-----------------------|



    Guitar 1
   
      Ki ga tsukeba nando mo irogawari    CALENDAR wa usuku natte yuku
   
      E                B                  A                E 
 
E|----7----------------7--------------|---5----------------7------7-7---------|
B|----9----------------7--------------|---5----------------9------9-9---------|
G|----9----------------8--------------|---6----------------9------9-9---------|
D<----9----------------9--------------|---7----------------9------9-9---------|
A|------------------------------------|---------------------------------------|
E|------------------------------------|---------------------------------------|
 |
 |
 |  Guitar 2
 |       
E|--x-7-x-7-x-7-x-7--x-7-x-7-x-7-x-7--|-x-5-x-5-x-5-x-5--x-7-x-7--7-7---------|
B|--x-9-x-9-x-9-x-9--x-7-x-7-x-7-x-7--|-x-5-x-5-x-5-x-5--x-9-x-9--9-9---------|
G|--x-9-x-9-x-9-x-9--x-8-x-8-x-8-x-8--|-x-6-x-6-x-6-x-6--x-9-x-9--9-9---------|
D<--x-9-x-9-x-9-x-9--x-9-x-9-x-9-x-9--|-x-7-x-7-x-7-x-7--x-9-x-9--9-9---------|
A|--x-7-x-7-x-7-x-7--x-9-x-9-x-9-x-9--|-x-7-x-7-x-7-x-7--x-7-x-7--7-7---------|
E|-------------------x-7-x-7-x-7-x-7--|-x-5-x-5-x-5-x-5--x--------------------|
 |
 |



Pre-CHORUS

    Guitar 1
 
    Tada          ‘koi’          toiu                    hitomoji    wa
  F#m                                  G#m

E|------------------------------------|---------------------------------------|
B|------------------------------------|---------------------------------------|
G|------------------------------------|---------------------------------------|
D<-4-4-4-4--4-4-4-4--4-4-4-4--4-4-4-4-|-6-6-6-6--6-6-6-6--6-6-6-6--6-6-6-6----|
A|-4-4-4-4--4-4-4-4--4-4-4-4--4-4-4-4-|-6-6-6-6--6-6-6-6--6-6-6-6--6-6-6-6----|
E|-2-2-2-2--2-2-2-2--2-2-2-2--2-2-2-2-|-4-4-4-4--4-4-4-4--4-4-4-4--4-4-4-4----|
 |
 |  P.M. ---------------------------    P.M.-----------------------------------
 | 
 |  Guitar 2 (w/ chorus fx)
 |
E|-2---------------------2------------|-4---------------------4---------------|
B|-2--------------------------2-------|-4----------------------------4--------|
G|-2------------------------------2---|-4---------------------------------4---|
D<-4-----------------4----------------|-6-----------------6-------------------|
A|------------------------------------|---------------------------------------|
E|------------------------------------|---------------------------------------|

    Guitar 1   

    AH              boku wo    komarase--------ru    yo
  A                                    B
   
E|------------------------------------|---------------------------------------|
B|------------------------------------|---------------------------------------|
G|------------------------------------|---------------------------------------|
D<-7-7-7-7--7-7-7-7--7-7-7-7--7-7-7-7-|-9-9-9-9--9-9-9-9--------------6-7-9---|
A|-7-7-7-7--7-7-7-7--7-7-7-7--7-7-7-7-|-9-9-9-9--9-9-9-9-------6-7-9----------|
E|-5-5-5-5--5-5-5-5--5-5-5-5--5-5-5-5-|-7-7-7-7--7-7-7-7--7-9-----------------|
 |
 |  P.M. -----------------------------  P.M.----------
 |
 |  Guitar 2
 |
E|-5---------------------5------------|-7--------7----------------------------|
B|-5----------------------------5-----|-7--------7--------------------9-10-12-|
G|-6--------------------------------6-|-8--------8-------------8-9-11---------|
D<-7-----------------7----------------|-9--------9--------9-11----------------|
A|------------------------------------|---------------------------------------|
E|------------------------------------|---------------------------------------|

                                         Guitar 3 Rhythm Fill

                                    E|---------------------------------------|
                                    B|---------------------------------------|
                                    G|-------------------------------8--9-11-|
                                    D<------------------------8-9-11---------|
                                    A|-------------------9-11----------------|
                                    E|---------------------------------------|


-------------------------------------------------------------------------------

CHORUS:

  Guitar 1 (w/ flanger)-(Note:Not too sure bout this part. In mezamashi live,
                          Mami seems to be strumming in random, or maybe its
                          just me.)

 
  Donna keshiki datte mannaka ni wa  Kimi no sugata dake ga atte hoshii
 
    E                                  F#m
  ^          ^      v    ^      v      ^ v ^        ^    v      ^    v
E|------------------0----------------|-----0--------------0-------------------|
B|------------0-----0---- 0----------|-----0--------0-----0-----0-------------|
G|-1----------1-----1-----1------1---|-2-2-2--------2-----2-----2-----2-------|
D<-2----------2-----------2------2---|-4-4-4--------4-----------4-----4-------|
A|-2----------2----------------------|-4-4-4----------------------------------|
E|-0---------------------------------|-2-2-2----------------------------------|
 |
 |  Guitar 2 - use your thumb for the lower E string like Haruna does to accomplish the chord positions.
 |
 | ^  ^  v  v  ^  v  v  ^  v  v  ^  v  ^  ^  v  v  ^  v  v  ^  v  v  ^  v
E|-------0--0-----0--0-----0--0-----0-|-------0--0------0--0------0--0-----0--|
B|-------0--0-----0--0-----0--0-----0-|-------0--0------0--0------0--0-----0--|
G|-------1--1-----1--1-----1--1-----1-|-------2--2------2--2------2--2-----2--|
D<-2--2--------2--------2--------2----|-4--4---------4---------4--------4-----|
A|-2--2--------2--------2--------2----|-4--4---------4---------4--------4-----|
E|-0--0--------0--------0--------0----|-2--2---------2---------2--------2-----|


  Guitar 1
   
  Aishiteru            nante          terete              ienai keredo
  (Furidashita              ame mo naze ka tanoshii kanji) - 2nd chorus
  G#m                                  A
    ^ v ^      ^      V  ^      v      ^ v ^        ^  v  v  ^  V  v  ^  v
E|-----0-------------0----------------|-----------------0--0------0--0-----0--|
B|-----0-------0-----0----0-----------|-----------------0--0------0--0-----0--|
G|-4-4-4-------4-----4----4------4----|-6-6-6-----------6--6------6--6-----6--|
D<-6-6-6-------6----------6------6----|-7-7-7--------7---------7--------7-----|
A|-6-6-6-------6----------------------|-7-7-7--------7---------5--------5-----|
E|-4-4-4------------------------------|-5-5-5--------5---------5--------5-----|
 |
 |  Guitar 2
 |
 |
E|-------0--0-----0--0-----0--0-----0-|-------0--0------0--0------0--0-----0--|
B|-------0--0-----0--0-----0--0-----0-|-------0--0------0--0------0--0-----0--|
G|-------4--4-----4--4-----4--4-----4-|-------6--6------6--6------6--6-----6--|
D<-6--6--------6--------6--------6----|-7--7---------7---------7--------7-----|
A|-6--6--------6--------6--------6----|-7--7---------7---------5--------5-----|
E|-4--4--------4--------4--------4----|-5--5---------5---------5--------5-----|




    Guitar 1
   
  Kokoro saita hana ni waraikakete    Amazuppai kajitsu wo hoobatte
 
  E                                  F#m

E|------------------0----------------|-----0--------------0-------------------|
B|------------0-----0---- 0----------|-----0--------0-----0-----0-------------|
G|-1----------1-----1-----1------1---|-2-2-2--------2-----2-----2-----2-------|
D<-2----------2-----------2------2---|-4-4-4--------4-----------4-----4-------|
A|-2----------2----------------------|-4-4-4----------------------------------|
E|-0---------------------------------|-2-2-2----------------------------------|
 |
 |  Guitar 2
 |
 |
E|-------0--0-----0--0-----0--0-----0-|-------0--0------0--0------0--0-----0--|
B|-------0--0-----0--0-----0--0-----0-|-------0--0------0--0------0--0-----0--|
G|-------1--1-----1--1-----1--1-----1-|-------2--2------2--2------2--2-----2--|
D<-2--2--------2--------2--------2----|-4--4---------4---------4--------4-----|
A|-2--2--------2--------2--------2----|-4--4---------4---------4--------4-----|
E|-0--0--------0--------0--------0----|-2--2---------2---------2--------2-----|


  Guitar 1
   
  Doko made mo                        tsuzuku  boku no egao
  (Itsu made mo) - 2nd Chorus                         

  G#m                                  A                B

E|-----0-------------0----------------|-0-----------0-----0--------0----------|
B|-----0-------0-----0----0-----------|-0-------0---0--0--0---0----0---0------|
G|-4-4-4-------4-----4----4------4----|-6-------6---6--6--8---8----8---8------|
D<-6-6-6-------6----------6------6----|-7-------7------7--9---9--------9------|
A|-6-6-6-------6----------------------|-7-----------------9-------------------|
E|-4-4-4------------------------------|-5-----------------7-------------------|
 |
 | Guitar 2
 |
 |
E|-------0--0-----0--0-----0--0-----0-|-------0--0-----0-------0--0----0------|
B|-------0--0-----0--0-----0--0-----0-|-------0--0-----0-------0--0----0------|
G|-------4--4-----4--4-----4--4-----4-|-------6--6-----6-------8--8----8------|
D<-6--6--------6--------6--------6----|-7--7---------7----9--9------9---------|
A|-6--6--------6--------6--------6----|-7--7---------7----9--9------9---------|
E|-4--4--------4--------4--------4----|-5--5---------5----7--7------7---------|


-------------------------------------------------------------------------------

REPEAT INTRO



VERSE 3:

  Guitar 1

  Kimi no koto dareka ni hanashite mo  Arifureta koi da to iu darou
 
      E                B                  A                E
           
E|--x-7-x-7-x-7-x-7--x-7-x-7-x-7-x-7--|-x-5-x-5-x-5-x-5--x-7-x-7-x-7-x-7------|
B|--x-9-x-9-x-9-x-9--x-7-x-7-x-7-x-7--|-x-5-x-5-x-5-x-5--x-9-x-9-x-9-x-9------|
G|--x-9-x-9-x-9-x-9--x-8-x-8-x-8-x-8--|-x-6-x-6-x-6-x-6--x-9-x-9-x-9-x-9------|
D<--x-9-x-9-x-9-x-9--x-9-x-9-x-9-x-9--|-x-7-x-7-x-7-x-7--x-9-x-9-x-9-x-9------|
A|--x-7-x-7-x-7-x-7--x-9-x-9-x-9-x-9--|-x-7-x-7-x-7-x-7--x-7-x-7-x-7-x-7------|
E|-------------------x-7-x-7-x-7-x-7--|-x-5-x-5-x-5-x-5-----------------------|
 |
 |
 |  Guitar 2
 | (let ring)
 |
E|----7----------------7--------------|---5----------------7------------------|
B|----9----------------7--------------|---5----------------9------------------|
G|----9----------------8--------------|---6----------------9------------------|
D<----9----------------9--------------|---7----------------9------------------|
A|------------------------------------|---------------------------------------|
E|------------------------------------|---------------------------------------|


  Guitar 1

    Demo kitto sore de ii n da yo ne   Tada kimi no koto ga suki na n da
 
      E                B                  A                E
       
E|--x-7-x-7-x-7-x-7--x-7-x-7-x-7-x-7--|-x-5-x-5-x-5-x-5--x-7-x-7--7-7---------|
B|--x-9-x-9-x-9-x-9--x-7-x-7-x-7-x-7--|-x-5-x-5-x-5-x-5--x-9-x-9--9-9---------|
G|--x-9-x-9-x-9-x-9--x-8-x-8-x-8-x-8--|-x-6-x-6-x-6-x-6--x-9-x-9--9-9---------|
D<--x-9-x-9-x-9-x-9--x-9-x-9-x-9-x-9--|-x-7-x-7-x-7-x-7--x-9-x-9--9-9---------|
A|--x-7-x-7-x-7-x-7--x-9-x-9-x-9-x-9--|-x-7-x-7-x-7-x-7--x-7-x-7--7-7---------|
E|-------------------x-7-x-7-x-7-x-7--|-x-5-x-5-x-5-x-5--x--------------------|
 |
 |
 |  Guitar 2
 |
 |
E|----7----------------7--------------|---5----------------7------7-7---------|
B|----9----------------7--------------|---5----------------9------9-9---------|
G|----9----------------8--------------|---6----------------9------9-9---------|
D<----9----------------9--------------|---7----------------9------9-9---------|
A|------------------------------------|---------------------------------------|
E|------------------------------------|---------------------------------------|


Pre-CHORUS

    Guitar 1
 
    Hora             itsudatte   kigatsukeba
 
    F#m               G#m

E|------------------------------------|---------------------------------------|
B|------------------------------------|---------------------------------------|
G|------------------------------------|---------------------------------------|
D<-4-4-4-4--4-4-4-4--4-4-4-4--4-4-4-4-|-6-6-6-6--6-6-6-6--6-6-6-6--6-6-6-6----|
A|-4-4-4-4--4-4-4-4--4-4-4-4--4-4-4-4-|-6-6-6-6--6-6-6-6--6-6-6-6--6-6-6-6----|
E|-2-2-2-2--2-2-2-2--2-2-2-2--2-2-2-2-|-4-4-4-4--4-4-4-4--4-4-4-4--4-4-4-4----|
 |
 |  P.M. ---------------------------    P.M.-----------------------------------
 | 
 |  Guitar 2 (w/ chorus)
 |
E|-2---------------------2------------|-4---------------------4---------------|
B|-2--------------------------2-------|-4----------------------------4--------|
G|-2------------------------------2---|-4---------------------------------4---|
D<-4-----------------4----------------|-6-----------------6-------------------|
A|------------------------------------|---------------------------------------|
E|------------------------------------|---------------------------------------|

    Guitar 1   

    AH          mata omoidashiteru
  A               B
   
E|------------------------------------|---------------------------------------|
B|------------------------------------|---------------------------------------|
G|------------------------------------|---------------------------------------|
D<-7-7-7-7--7-7-7-7--7-7-7-7--7-7-7-7-|-9-9-9-9--9-9-9-9--------------6-7-9---|
A|-7-7-7-7--7-7-7-7--7-7-7-7--7-7-7-7-|-9-9-9-9--9-9-9-9-------6-7-9----------|
E|-5-5-5-5--5-5-5-5--5-5-5-5--5-5-5-5-|-7-7-7-7--7-7-7-7--7-9-----------------|
 |
 |  P.M. -----------------------------  P.M.----------
 |
 |  Guitar 2
 |
E|-5---------------------5------------|-7--------7----------------------------|
B|-5----------------------------5-----|-7--------7--------------------9-10-12-|
G|-6--------------------------------6-|-8--------8-------------8-9-11---------|
D<-7-----------------7----------------|-9--------9--------9-11----------------|
A|------------------------------------|---------------------------------------|
E|------------------------------------|---------------------------------------|

    Guitar 3 Rhythm Fill
                E|---------------------------------------|
                B|---------------------------------------|
                G|-------------------------------8--9-11-|
                D<------------------------8-9-11---------|
                A|-------------------9-11----------------|
                E|---------------------------------------|

Repeat Chorus

-------------------------------------------------------------------------------


Instrumental/Solo

  Guitar 1 (w/ flanger)
   
  C#m                                  D#m
  ^                                ^  ^ v ^                              ^
E|------------------------------------|---------------------------------------|
B|-5--------------------------------5-|-7-7-7-------------------------------7-|
G|-6--------------------------------6-|-8-8-8-------------------------------Rolling Eyes
D<-6--------------------------------6-|-8-8-8-------------------------------Rolling Eyes
A|-4--------------------------------4-|-6-6-6-------------------------------6-|
E|------------------------------------|---------------------------------------|
 |
 | 
 | 
 |  Guitar 2
 |
E|------4-4-----4-4-----4-4-----4-----|------6-6-----6-6----6-6-----6---------|
B|------5-5-----5-5-----5-5-----5-----|------7-7-----7-7----7-7-----7---------|
G|-6-6--6-6--6--6-6--6--6-6--6--6-----|-8-8--8-8--8--8-8-8--8-8--8--8---------|
D<-6-6-------6-------6-------6--------|-8-8-------8------8-------8------------|
A|-4-4-------4-------4-------4--------|-6-6-------6------6-------6------------|
E|------------------------------------|---------------------------------------|

 
  Guitar 1
   
  E                                      A
    ^ v ^                            ^    ^  ^  ^  ^  ^  ^
E|------------------------------------|---------------------------------------|
B|-9-9-9----------------------------9-|---------------------------------------|
G|-9-9-9----------------------------9-|---------------------------------------|
D<-9-9-9----------------------------9-|---7---7---7---7---7---7---------------|
A|-7-7-7----------------------------7-|---7---7---7---7---7---7---------------|
E|------------------------------------|---5---5---5---5---5---5---------------|
 |
 | 
 | 
 |  Guitar 2
 |
E|------7-7-----7-7-----7-7-----7-----|---------------------------------------|
B|------9-9-----9-9-----9-9-----9-----|---------------------------------------|
G|-9-9--9-9--9--9-9--9--9-9--9--9-----|---------------------------------------|
D<-9-9-------9-------9-------9--------|---7---7---7---7---7---7---------------|
A|-7-7-------7-------7-------7--------|---7---7---7---7---7---7---------------|
E|------------------------------------|---5---5---5---5---5---5---------------|


  C#m                                  D#m

E|------------------------------------|---------------------------------------|
B|-5--------------------------------5-|-7-7-7-------------------------------7-|
G|-6--------------------------------6-|-8-8-8-------------------------------Rolling Eyes
D<-6--------------------------------6-|-8-8-8-------------------------------Rolling Eyes
A|-4--------------------------------4-|-6-6-6-------------------------------6-|
E|------------------------------------|---------------------------------------|
 |
 | 
 | 
 |  Guitar 2
 |
E|------4-4-----4-4-----4-4-----4-----|------6-6-----6-6----6-6-----6---------|
B|------5-5-----5-5-----5-5-----5-----|------7-7-----7-7----7-7-----7---------|
G|-6-6--6-6--6--6-6--6--6-6--6--6-----|-8-8--8-8--8--8-8-8--8-8--8--8---------|
D<-6-6-------6-------6-------6--------|-8-8-------8------8-------8------------|
A|-4-4-------4-------4-------4--------|-6-6-------6------6-------6------------|
E|------------------------------------|---------------------------------------|

 
  Guitar 1
   
  E                                    F#

E|------------------------------------|---------------------------------------|
B|-9-9-9----------------------------9-|---------------------------------------|
G|-9-9-9----------------------------9-|-11-11-11--11-11-11--11-11-11--11-11-11|
D<-9-9-9----------------------------9-|-11-11-11--11-11-11--11-11-11--11-11-11|
A|-7-7-7----------------------------7-|--9--9--9---9--9--9---9--9--9---9--9--9|
E|------------------------------------|---------------------------------------|
 |
 | 
 | 
 |  Guitar 2
 |
E|------7-7-----7-7-----7-7-----7-----|---------------------------------------|
B|------9-9-----9-9-----9-9-----9-----|---------------------------------------|
G|-9-9--9-9--9--9-9--9--9-9--9--9-----|--11-11-11-11-11-11-11-11-11-11-11-11--|
D<-9-9-------9-------9-------9--------|--11-11-11-11-11-11-11-11-11-11-11-11--|
A|-7-7-------7-------7-------7--------|---9--9--9--9--9--9--9--9--9--9--9--9--|
E|------------------------------------|---------------------------------------|



 Guitar 1
   
  F#               

E|-------------------------------------|--------------------------------------|
B|-------------------------------------|--------------------------------------|
G|-11-11-11-11-11-11-11-11-11-11-11-11-|--------------------------------------|
D<-11-11-11-11-11-11-11-11-11-11-11-11-|------------------------------6-7-9---|
A|--9--9--9--9--9--9--9--9--9--9--9--9-|------------------------6-7-9---------|
E|-------------------------------------|--------------------7-9---------------|
 |
 | 
 | 
 |  Guitar 2
 |
E|-------------------------------------|--------------------------------------|
B|-------------------------------------|------------------------------9-10-12-|
G|-11-11-11-11-11-11-11-11-11-11-11-11-|------------------------8-9-11--------|
D<-11-11-11-11-11-11-11-11-11-11-11-11-|--------------------9-11--------------|
A|--9--9--9--9--9--9--9--9--9--9--9--9-|--------------------------------------|
E|-------------------------------------|--------------------------------------|


                     
               Guitar 3 Rhythm Fill

                                      E|-------------------------------------|
                                      B|-------------------------------------|
                                      G|---------------------------- 8-9-11--|
                                      D<-----------------------8-9-11--------|
                                      A|-------------------9-11--------------|
                                      E|-------------------------------------|


ENDING CHORUS


  Guitar 2
   
  Donna keshiki datte mannaka ni wa  Kimi no sugata dake ga atte hoshii
 
    E                                  F#m

E|-------0--0-----0--0-----0--0-----0-|-------0--0------0--0------0--0-----0--|
B|-------0--0-----0--0-----0--0-----0-|-------0--0------0--0------0--0-----0--|
G|-------1--1-----1--1-----1--1-----1-|-------2--2------2--2------2--2-----2--|
D<-2--2--------2--------2--------2----|-4--4---------4---------4--------4-----|
A|-2--2--------2--------2--------2----|-4--4---------4---------4--------4-----|
E|-0--0--------0--------0--------0----|-2--2---------2---------2--------2-----|


  Guitar 2
   
  Aishiteru            nante          terete              ienai keredo
 
    G#m                                  A
 
E|-------0--0-----0--0-----0--0-----0-|-------0--0------0--0------0--0-----0--|
B|-------0--0-----0--0-----0--0-----0-|-------0--0------0--0------0--0-----0--|
G|-------4--4-----4--4-----4--4-----4-|-------6--6------6--6------6--6-----6--|
D<-6--6--------6--------6--------6----|-7--7---------7---------7--------7-----|
A|-6--6--------6--------6--------6----|-7--7---------7---------5--------5-----|
E|-4--4--------4--------4--------4----|-5--5---------5---------5--------5-----|




    Guitar 1
   
  Kokoro saita hana ni waraikakete    Amazuppai kajitsu wo hoobatte
 
    E                                    F#m

E|-0-0-0-------------------------------|-0-0-0--------------------------------|
B|-0-0-0-------------------------------|-0-0-0--------------------------------|
G|-1-1-1-------------------------------|-2-2-2--------------------------------|
D<-2-2-2-------------------------------|-4-4-4--------------------------------|
A|-2-2-2-------------------------------|-4-4-4--------------------------------|
E|-0-0-0-------------------------------|-2-2-2--------------------------------|
 |
 |  Guitar 2
 |
 |
E|-------0--0-----0--0-----0--0-----0-|-------0--0------0--0------0--0-----0--|
B|-------0--0-----0--0-----0--0-----0-|-------0--0------0--0------0--0-----0--|
G|-------1--1-----1--1-----1--1-----1-|-------2--2------2--2------2--2-----2--|
D<-2--2--------2--------2--------2----|-4--4---------4---------4--------4-----|
A|-2--2--------2--------2--------2----|-4--4---------4---------4--------4-----|
E|-0--0--------0--------0--------0----|-2--2---------2---------2--------2-----|


  Guitar 1
   
  Daisuki da nante          terete  ienai keredo   
                         

    G#m                                    A                B

E|-0-0-0--------------------------------|-0----------------0------------------|
B|-0-0-0--------------------------------|-0----------------0------------------|
G|-4-4-4--------------------------------|-6----------------8------------------|
D<-6-6-6--------------------------------|-7----------------9------------------|
A|-6-6-6--------------------------------|-7----------------9------------------|
E|-4-4-4--------------------------------|-5----------------7------------------|
 |
 | Guitar 2
 |
 |
E|-------0--0-----0--0-----0--0-----0-|-------0--0-----0-------0--0----0------|
B|-------0--0-----0--0-----0--0-----0-|-------0--0-----0-------0--0----0------|
G|-------4--4-----4--4-----4--4-----4-|-------6--6-----6-------8--8----8------|
D<-6--6--------6--------6--------6----|-7--7---------7----9--9------9---------|
A|-6--6--------6--------6--------6----|-7--7---------7----9--9------9---------|
E|-4--4--------4--------4--------4----|-5--5---------5----7--7------7---------|



Guitar 1 & 2 from here onwards
   
  Donna keshiki datte mannaka ni wa  Kimi no sugata dake ga atte hoshii
 
    E                                  F#m

E|-------0--0-----0--0-----0--0-----0-|-------0--0------0--0------0--0-----0--|
B|-------0--0-----0--0-----0--0-----0-|-------0--0------0--0------0--0-----0--|
G|-------1--1-----1--1-----1--1-----1-|-------2--2------2--2------2--2-----2--|
D<-2--2--------2--------2--------2----|-4--4---------4---------4--------4-----|
A|-2--2--------2--------2--------2----|-4--4---------4---------4--------4-----|
E|-0--0--------0--------0--------0----|-2--2---------2---------2--------2-----|


 
 
  Furidashita              ame mo naze ka tanoshii kanji

 |
E|-------0--0-----0--0-----0--0-----0-|-------0--0------0--0------0--0-----0--|
B|-------0--0-----0--0-----0--0-----0-|-------0--0------0--0------0--0-----0--|
G|-------4--4-----4--4-----4--4-----4-|-------6--6------6--6------6--6-----6--|
D<-6--6--------6--------6--------6----|-7--7---------7---------7--------7-----|
A|-6--6--------6--------6--------6----|-7--7---------7---------5--------5-----|
E|-4--4--------4--------4--------4----|-5--5---------5---------5--------5-----|


 
  Kokoro saita hana ni waraikakete    Amazuppai kajitsu wo hoobatte
 
    E                                  F#m

 
E|-------0--0-----0--0-----0--0-----0-|-------0--0------0--0------0--0-----0--|
B|-------0--0-----0--0-----0--0-----0-|-------0--0------0--0------0--0-----0--|
G|-------1--1-----1--1-----1--1-----1-|-------2--2------2--2------2--2-----2--|
D<-2--2--------2--------2--------2----|-4--4---------4---------4--------4-----|
A|-2--2--------2--------2--------2----|-4--4---------4---------4--------4-----|
E|-0--0--------0--------0--------0----|-2--2---------2---------2--------2-----|


  Guitar 1

  Doko made mo               tsuzuku boku no          omoi
                         

    G#m                                  A                B

E|-------0--0-----0--0-----0--0-----0-|-------0--0-----0-------0--0----0------|
B|-------0--0-----0--0-----0--0-----0-|-------0--0-----0-------0--0----0------|
G|-------4--4-----4--4-----4--4-----4-|-------6--6-----6-------8--8----8------|
D<-6--6--------6--------6--------6----|-7--7---------7----9--9------9---------|
A|-6--6--------6--------6--------6----|-7--7---------7----9--9------9---------|
E|-4--4--------4--------4--------4----|-5--5---------5----7--7------7---------|


REPEAT INTRO:


------------------------------------------------------------------------------|
                                    END
------------------------------------------------------------------------------|

Back to top Go down

Re: Koi no Kajitsu Tab
Posted on Wed May 12, 2010 6:52 am


chopstickattack

Shiroten Performer
Shiroten Performer
woohoo! another one !!... thanks ren! Tears of Joy

Back to top Go down

Re: Koi no Kajitsu Tab
Posted on Thu Oct 06, 2011 5:59 am


Unwell0430

Caless Student
Caless Student
ren-00 wrote:Here's another tab of one of their old songs. Hope you enjoy. (paste in Notepad for better view)


Code:

------------------------------------------------------------------------------|
Koi no Kajitsu - SCANDAL
------------------------------------------------------------------------------|
Tabbed by: ren-00 email: rourensou@gmail.com
          for Scandal Heaven forums
          @ http://scandal-heaven.forumotion.com


Tuning:Standard

Tablature Notation

 
  ^ - means downstroke strum motion
  v - means upstroke strum motion
  x - play 'note' with heavy muting


For the Intro and Verses (and some other parts), I just placed the entire chord
fingering (because of my lazyness) and it is up to the player which strings to
strum while doing the down/upstroke strum motion.


Just a guess:
Guitar 1 - Mami
Guitar 2 - Haruna
Guitar 3 - Ren :-)

INTRO:

Guitar 1 & 2

    E      B        A        B            E      B        A        C#  B
    ^ v ^  v ^ v ^  v ^ v ^  v ^ v ^ v    ^ v ^  v ^ v ^  v ^ v ^  v  ^ v ^ v

E|--7-7-x--7-7-7-x--5-5-5-x--7-7-7-x-x-|--7-7-x--7-7-7-x--5-5-5-x--9--x-7-7-x-|
B|--9-9-x--7-7-7-x--5-5-5-x--7-7-7-x-x-|--9-9-x--7-7-7-x--5-5-5-x--9--x-7-7-x-|
G|--9-9-x--8-8-8-x--6-6-6-x--8-8-8-x-x-|--9-9-x--8-8-8-x--6-6-6-x--10-x-8-8-x-|
D<--9-9-x--9-9-9-x--7-7-7-x--9-9-9-x-x-|--9-9-x--9-9-9-x--7-7-7-x--11-x-9-9-x-|
A|--7-7-x--9-9-9-x--7-7-7-x--9-9-9-x-x-|--7-7-x--9-9-9-x--7-7-7-x--11-x-9-9-x-|
E|---------7-7-7-x--5-5-6-x--7-7-7-x-x-|---------7-7-7-x--5-5-5-x--9--x-7-7-x-|

    E      B        A        B            A G#  A  G# A  G# A  G# B
    ^ v ^  v ^ v ^  v ^ v ^  v ^ v ^ v    ^  v  ^  v  ^  v  ^  v  ^ v ^ v ^ ^

E|--7-7-x--7-7-7-x--5-5-5-x--7-7-7-x-x-|------------------------------------7-|
B|--9-9-x--7-7-7-x--5-5-5-x--7-7-7-x-x-|------------------------------------7-|
G|--9-9-x--8-8-8-x--6-6-6-x--8-8-8-x-x-|------------------------------------Rolling Eyes
D<--9-9-x--9-9-9-x--7-7-7-x--9-9-9-x-x-|--7--6--7--6--7--6--7--6--9-9-9-9-9-9-|
A|--7-7-x--9-9-9-x--7-7-7-x--9-9-9-x-x-|--7--6--7--6--7--6--7--6--9-9-9-9-9-9-|
E|---------7-7-7-x--5-5-6-x--7-7-7-x-x-|--5--4--5--4--5--4--5--4--7-7-7-7-7---|

VERSE 1

1. Sekai wa konna ni mo  hiroi no ni    Aru hi kimi  deaeta kiseki
2. Kimi no kotoba no hitotsu hitotsu ni  Taishita imi nanka nai keredo

      E                B                  A                E
           
E|--x-7-x-7-x-7-x-7--x-7-x-7-x-7-x-7--|-x-5-x-5-x-5-x-5--x-7-x-7-x-7-x-7------|
B|--x-9-x-9-x-9-x-9--x-7-x-7-x-7-x-7--|-x-5-x-5-x-5-x-5--x-9-x-9-x-9-x-9------|
G|--x-9-x-9-x-9-x-9--x-8-x-8-x-8-x-8--|-x-6-x-6-x-6-x-6--x-9-x-9-x-9-x-9------|
D<--x-9-x-9-x-9-x-9--x-9-x-9-x-9-x-9--|-x-7-x-7-x-7-x-7--x-9-x-9-x-9-x-9------|
A|--x-7-x-7-x-7-x-7--x-9-x-9-x-9-x-9--|-x-7-x-7-x-7-x-7--x-7-x-7-x-7-x-7------|
E|-------------------x-7-x-7-x-7-x-7--|-x-5-x-5-x-5-x-5-----------------------|


  Kagiri naku chiisana unmei de        Kagiri naku ookina kono kimochi
  Sasayaku you na itsumo no koe ni   Boku wa anshin shiteiru’n da
   
      E                B                  A                E
         
E|--x-7-x-7-x-7-x-7--x-7-x-7-x-7-x-7--|-x-5-x-5-x-5-x-5--x-7-x-7--7-----------|
B|--x-9-x-9-x-9-x-9--x-7-x-7-x-7-x-7--|-x-5-x-5-x-5-x-5--x-9-x-9--9-----------|
G|--x-9-x-9-x-9-x-9--x-8-x-8-x-8-x-8--|-x-6-x-6-x-6-x-6--x-9-x-9--9-----------|
D<--x-9-x-9-x-9-x-9--x-9-x-9-x-9-x-9--|-x-7-x-7-x-7-x-7--x-9-x-9--9-----------|
A|--x-7-x-7-x-7-x-7--x-9-x-9-x-9-x-9--|-x-7-x-7-x-7-x-7--x-7-x-7--7-----------|
E|-------------------x-7-x-7-x-7-x-7--|-x-5-x-5-x-5-x-5-----------------------|

Pre-VERSE 2

    E      B        A        B            E      B        A          B
 
E|--7-7-x--7-7-7-x--5-5-5-x--7-7-7-x-x-|--7-7-x--7-7-7-x--5-5-5--5-5--7-7-----|
B|--9-9-x--7-7-7-x--5-5-5-x--7-7-7-x-x-|--9-9-x--7-7-7-x--5-5-5--5-5--7-7-----|
G|--9-9-x--8-8-8-x--6-6-6-x--8-8-8-x-x-|--9-9-x--8-8-8-x--6-6-6--6-6--8-8-----|
D<--9-9-x--9-9-9-x--7-7-7-x--9-9-9-x-x-|--9-9-x--9-9-9-x--7-7-7--7-7--9-9-----|
A|--7-7-x--9-9-9-x--7-7-7-x--9-9-9-x-x-|--7-7-x--9-9-9-x--7-7-7--7-7--9-9-----|
E|---------7-7-7-x--5-5-6-x--7-7-7-x-x-|---------7-7-7-x--5-5-5--5-5--7-7-----|


VERSE 2:

 
    Guitar 1
  (let ring)

    Mawaru mawaru kisetsu no tokei no   SPEED ga dandan hayaku naru
      E                B                  A                E
 
E|----7----------------7--------------|---5----------------7------------------|
B|----9----------------7--------------|---5----------------9------------------|
G|----9----------------8--------------|---6----------------9------------------|
D<----9----------------9--------------|---7----------------9------------------|
A|------------------------------------|---------------------------------------|
E|------------------------------------|---------------------------------------|
 |
 | 
 |  Guitar 2
 |   
 |       
E|--x-7-x-7-x-7-x-7--x-7-x-7-x-7-x-7--|-x-5-x-5-x-5-x-5--x-7-x-7-x-7-x-7------|
B|--x-9-x-9-x-9-x-9--x-7-x-7-x-7-x-7--|-x-5-x-5-x-5-x-5--x-9-x-9-x-9-x-9------|
G|--x-9-x-9-x-9-x-9--x-8-x-8-x-8-x-8--|-x-6-x-6-x-6-x-6--x-9-x-9-x-9-x-9------|
D<--x-9-x-9-x-9-x-9--x-9-x-9-x-9-x-9--|-x-7-x-7-x-7-x-7--x-9-x-9-x-9-x-9------|
A|--x-7-x-7-x-7-x-7--x-9-x-9-x-9-x-9--|-x-7-x-7-x-7-x-7--x-7-x-7-x-7-x-7------|
E|-------------------x-7-x-7-x-7-x-7--|-x-5-x-5-x-5-x-5-----------------------|



    Guitar 1
   
      Ki ga tsukeba nando mo irogawari    CALENDAR wa usuku natte yuku
   
      E                B                  A                E 
 
E|----7----------------7--------------|---5----------------7------7-7---------|
B|----9----------------7--------------|---5----------------9------9-9---------|
G|----9----------------8--------------|---6----------------9------9-9---------|
D<----9----------------9--------------|---7----------------9------9-9---------|
A|------------------------------------|---------------------------------------|
E|------------------------------------|---------------------------------------|
 |
 |
 |  Guitar 2
 |       
E|--x-7-x-7-x-7-x-7--x-7-x-7-x-7-x-7--|-x-5-x-5-x-5-x-5--x-7-x-7--7-7---------|
B|--x-9-x-9-x-9-x-9--x-7-x-7-x-7-x-7--|-x-5-x-5-x-5-x-5--x-9-x-9--9-9---------|
G|--x-9-x-9-x-9-x-9--x-8-x-8-x-8-x-8--|-x-6-x-6-x-6-x-6--x-9-x-9--9-9---------|
D<--x-9-x-9-x-9-x-9--x-9-x-9-x-9-x-9--|-x-7-x-7-x-7-x-7--x-9-x-9--9-9---------|
A|--x-7-x-7-x-7-x-7--x-9-x-9-x-9-x-9--|-x-7-x-7-x-7-x-7--x-7-x-7--7-7---------|
E|-------------------x-7-x-7-x-7-x-7--|-x-5-x-5-x-5-x-5--x--------------------|
 |
 |



Pre-CHORUS

    Guitar 1
 
    Tada          ‘koi’          toiu                    hitomoji    wa
  F#m                                  G#m

E|------------------------------------|---------------------------------------|
B|------------------------------------|---------------------------------------|
G|------------------------------------|---------------------------------------|
D<-4-4-4-4--4-4-4-4--4-4-4-4--4-4-4-4-|-6-6-6-6--6-6-6-6--6-6-6-6--6-6-6-6----|
A|-4-4-4-4--4-4-4-4--4-4-4-4--4-4-4-4-|-6-6-6-6--6-6-6-6--6-6-6-6--6-6-6-6----|
E|-2-2-2-2--2-2-2-2--2-2-2-2--2-2-2-2-|-4-4-4-4--4-4-4-4--4-4-4-4--4-4-4-4----|
 |
 |  P.M. ---------------------------    P.M.-----------------------------------
 | 
 |  Guitar 2 (w/ chorus fx)
 |
E|-2---------------------2------------|-4---------------------4---------------|
B|-2--------------------------2-------|-4----------------------------4--------|
G|-2------------------------------2---|-4---------------------------------4---|
D<-4-----------------4----------------|-6-----------------6-------------------|
A|------------------------------------|---------------------------------------|
E|------------------------------------|---------------------------------------|

    Guitar 1   

    AH              boku wo    komarase--------ru    yo
  A                                    B
   
E|------------------------------------|---------------------------------------|
B|------------------------------------|---------------------------------------|
G|------------------------------------|---------------------------------------|
D<-7-7-7-7--7-7-7-7--7-7-7-7--7-7-7-7-|-9-9-9-9--9-9-9-9--------------6-7-9---|
A|-7-7-7-7--7-7-7-7--7-7-7-7--7-7-7-7-|-9-9-9-9--9-9-9-9-------6-7-9----------|
E|-5-5-5-5--5-5-5-5--5-5-5-5--5-5-5-5-|-7-7-7-7--7-7-7-7--7-9-----------------|
 |
 |  P.M. -----------------------------  P.M.----------
 |
 |  Guitar 2
 |
E|-5---------------------5------------|-7--------7----------------------------|
B|-5----------------------------5-----|-7--------7--------------------9-10-12-|
G|-6--------------------------------6-|-8--------8-------------8-9-11---------|
D<-7-----------------7----------------|-9--------9--------9-11----------------|
A|------------------------------------|---------------------------------------|
E|------------------------------------|---------------------------------------|

                                         Guitar 3 Rhythm Fill

                                    E|---------------------------------------|
                                    B|---------------------------------------|
                                    G|-------------------------------8--9-11-|
                                    D<------------------------8-9-11---------|
                                    A|-------------------9-11----------------|
                                    E|---------------------------------------|


-------------------------------------------------------------------------------

CHORUS:

  Guitar 1 (w/ flanger)-(Note:Not too sure bout this part. In mezamashi live,
                          Mami seems to be strumming in random, or maybe its
                          just me.)

 
  Donna keshiki datte mannaka ni wa  Kimi no sugata dake ga atte hoshii
 
    E                                  F#m
  ^          ^      v    ^      v      ^ v ^        ^    v      ^    v
E|------------------0----------------|-----0--------------0-------------------|
B|------------0-----0---- 0----------|-----0--------0-----0-----0-------------|
G|-1----------1-----1-----1------1---|-2-2-2--------2-----2-----2-----2-------|
D<-2----------2-----------2------2---|-4-4-4--------4-----------4-----4-------|
A|-2----------2----------------------|-4-4-4----------------------------------|
E|-0---------------------------------|-2-2-2----------------------------------|
 |
 |  Guitar 2 - use your thumb for the lower E string like Haruna does to accomplish the chord positions.
 |
 | ^  ^  v  v  ^  v  v  ^  v  v  ^  v  ^  ^  v  v  ^  v  v  ^  v  v  ^  v
E|-------0--0-----0--0-----0--0-----0-|-------0--0------0--0------0--0-----0--|
B|-------0--0-----0--0-----0--0-----0-|-------0--0------0--0------0--0-----0--|
G|-------1--1-----1--1-----1--1-----1-|-------2--2------2--2------2--2-----2--|
D<-2--2--------2--------2--------2----|-4--4---------4---------4--------4-----|
A|-2--2--------2--------2--------2----|-4--4---------4---------4--------4-----|
E|-0--0--------0--------0--------0----|-2--2---------2---------2--------2-----|


  Guitar 1
   
  Aishiteru            nante          terete              ienai keredo
  (Furidashita              ame mo naze ka tanoshii kanji) - 2nd chorus
  G#m                                  A
    ^ v ^      ^      V  ^      v      ^ v ^        ^  v  v  ^  V  v  ^  v
E|-----0-------------0----------------|-----------------0--0------0--0-----0--|
B|-----0-------0-----0----0-----------|-----------------0--0------0--0-----0--|
G|-4-4-4-------4-----4----4------4----|-6-6-6-----------6--6------6--6-----6--|
D<-6-6-6-------6----------6------6----|-7-7-7--------7---------7--------7-----|
A|-6-6-6-------6----------------------|-7-7-7--------7---------5--------5-----|
E|-4-4-4------------------------------|-5-5-5--------5---------5--------5-----|
 |
 |  Guitar 2
 |
 |
E|-------0--0-----0--0-----0--0-----0-|-------0--0------0--0------0--0-----0--|
B|-------0--0-----0--0-----0--0-----0-|-------0--0------0--0------0--0-----0--|
G|-------4--4-----4--4-----4--4-----4-|-------6--6------6--6------6--6-----6--|
D<-6--6--------6--------6--------6----|-7--7---------7---------7--------7-----|
A|-6--6--------6--------6--------6----|-7--7---------7---------5--------5-----|
E|-4--4--------4--------4--------4----|-5--5---------5---------5--------5-----|




    Guitar 1
   
  Kokoro saita hana ni waraikakete    Amazuppai kajitsu wo hoobatte
 
  E                                  F#m

E|------------------0----------------|-----0--------------0-------------------|
B|------------0-----0---- 0----------|-----0--------0-----0-----0-------------|
G|-1----------1-----1-----1------1---|-2-2-2--------2-----2-----2-----2-------|
D<-2----------2-----------2------2---|-4-4-4--------4-----------4-----4-------|
A|-2----------2----------------------|-4-4-4----------------------------------|
E|-0---------------------------------|-2-2-2----------------------------------|
 |
 |  Guitar 2
 |
 |
E|-------0--0-----0--0-----0--0-----0-|-------0--0------0--0------0--0-----0--|
B|-------0--0-----0--0-----0--0-----0-|-------0--0------0--0------0--0-----0--|
G|-------1--1-----1--1-----1--1-----1-|-------2--2------2--2------2--2-----2--|
D<-2--2--------2--------2--------2----|-4--4---------4---------4--------4-----|
A|-2--2--------2--------2--------2----|-4--4---------4---------4--------4-----|
E|-0--0--------0--------0--------0----|-2--2---------2---------2--------2-----|


  Guitar 1
   
  Doko made mo                        tsuzuku  boku no egao
  (Itsu made mo) - 2nd Chorus                         

  G#m                                  A                B

E|-----0-------------0----------------|-0-----------0-----0--------0----------|
B|-----0-------0-----0----0-----------|-0-------0---0--0--0---0----0---0------|
G|-4-4-4-------4-----4----4------4----|-6-------6---6--6--8---8----8---8------|
D<-6-6-6-------6----------6------6----|-7-------7------7--9---9--------9------|
A|-6-6-6-------6----------------------|-7-----------------9-------------------|
E|-4-4-4------------------------------|-5-----------------7-------------------|
 |
 | Guitar 2
 |
 |
E|-------0--0-----0--0-----0--0-----0-|-------0--0-----0-------0--0----0------|
B|-------0--0-----0--0-----0--0-----0-|-------0--0-----0-------0--0----0------|
G|-------4--4-----4--4-----4--4-----4-|-------6--6-----6-------8--8----8------|
D<-6--6--------6--------6--------6----|-7--7---------7----9--9------9---------|
A|-6--6--------6--------6--------6----|-7--7---------7----9--9------9---------|
E|-4--4--------4--------4--------4----|-5--5---------5----7--7------7---------|


-------------------------------------------------------------------------------

REPEAT INTRO



VERSE 3:

  Guitar 1

  Kimi no koto dareka ni hanashite mo  Arifureta koi da to iu darou
 
      E                B                  A                E
           
E|--x-7-x-7-x-7-x-7--x-7-x-7-x-7-x-7--|-x-5-x-5-x-5-x-5--x-7-x-7-x-7-x-7------|
B|--x-9-x-9-x-9-x-9--x-7-x-7-x-7-x-7--|-x-5-x-5-x-5-x-5--x-9-x-9-x-9-x-9------|
G|--x-9-x-9-x-9-x-9--x-8-x-8-x-8-x-8--|-x-6-x-6-x-6-x-6--x-9-x-9-x-9-x-9------|
D<--x-9-x-9-x-9-x-9--x-9-x-9-x-9-x-9--|-x-7-x-7-x-7-x-7--x-9-x-9-x-9-x-9------|
A|--x-7-x-7-x-7-x-7--x-9-x-9-x-9-x-9--|-x-7-x-7-x-7-x-7--x-7-x-7-x-7-x-7------|
E|-------------------x-7-x-7-x-7-x-7--|-x-5-x-5-x-5-x-5-----------------------|
 |
 |
 |  Guitar 2
 | (let ring)
 |
E|----7----------------7--------------|---5----------------7------------------|
B|----9----------------7--------------|---5----------------9------------------|
G|----9----------------8--------------|---6----------------9------------------|
D<----9----------------9--------------|---7----------------9------------------|
A|------------------------------------|---------------------------------------|
E|------------------------------------|---------------------------------------|


  Guitar 1

    Demo kitto sore de ii n da yo ne   Tada kimi no koto ga suki na n da
 
      E                B                  A                E
       
E|--x-7-x-7-x-7-x-7--x-7-x-7-x-7-x-7--|-x-5-x-5-x-5-x-5--x-7-x-7--7-7---------|
B|--x-9-x-9-x-9-x-9--x-7-x-7-x-7-x-7--|-x-5-x-5-x-5-x-5--x-9-x-9--9-9---------|
G|--x-9-x-9-x-9-x-9--x-8-x-8-x-8-x-8--|-x-6-x-6-x-6-x-6--x-9-x-9--9-9---------|
D<--x-9-x-9-x-9-x-9--x-9-x-9-x-9-x-9--|-x-7-x-7-x-7-x-7--x-9-x-9--9-9---------|
A|--x-7-x-7-x-7-x-7--x-9-x-9-x-9-x-9--|-x-7-x-7-x-7-x-7--x-7-x-7--7-7---------|
E|-------------------x-7-x-7-x-7-x-7--|-x-5-x-5-x-5-x-5--x--------------------|
 |
 |
 |  Guitar 2
 |
 |
E|----7----------------7--------------|---5----------------7------7-7---------|
B|----9----------------7--------------|---5----------------9------9-9---------|
G|----9----------------8--------------|---6----------------9------9-9---------|
D<----9----------------9--------------|---7----------------9------9-9---------|
A|------------------------------------|---------------------------------------|
E|------------------------------------|---------------------------------------|


Pre-CHORUS

    Guitar 1
 
    Hora             itsudatte   kigatsukeba
 
    F#m               G#m

E|------------------------------------|---------------------------------------|
B|------------------------------------|---------------------------------------|
G|------------------------------------|---------------------------------------|
D<-4-4-4-4--4-4-4-4--4-4-4-4--4-4-4-4-|-6-6-6-6--6-6-6-6--6-6-6-6--6-6-6-6----|
A|-4-4-4-4--4-4-4-4--4-4-4-4--4-4-4-4-|-6-6-6-6--6-6-6-6--6-6-6-6--6-6-6-6----|
E|-2-2-2-2--2-2-2-2--2-2-2-2--2-2-2-2-|-4-4-4-4--4-4-4-4--4-4-4-4--4-4-4-4----|
 |
 |  P.M. ---------------------------    P.M.-----------------------------------
 | 
 |  Guitar 2 (w/ chorus)
 |
E|-2---------------------2------------|-4---------------------4---------------|
B|-2--------------------------2-------|-4----------------------------4--------|
G|-2------------------------------2---|-4---------------------------------4---|
D<-4-----------------4----------------|-6-----------------6-------------------|
A|------------------------------------|---------------------------------------|
E|------------------------------------|---------------------------------------|

    Guitar 1   

    AH          mata omoidashiteru
  A               B
   
E|------------------------------------|---------------------------------------|
B|------------------------------------|---------------------------------------|
G|------------------------------------|---------------------------------------|
D<-7-7-7-7--7-7-7-7--7-7-7-7--7-7-7-7-|-9-9-9-9--9-9-9-9--------------6-7-9---|
A|-7-7-7-7--7-7-7-7--7-7-7-7--7-7-7-7-|-9-9-9-9--9-9-9-9-------6-7-9----------|
E|-5-5-5-5--5-5-5-5--5-5-5-5--5-5-5-5-|-7-7-7-7--7-7-7-7--7-9-----------------|
 |
 |  P.M. -----------------------------  P.M.----------
 |
 |  Guitar 2
 |
E|-5---------------------5------------|-7--------7----------------------------|
B|-5----------------------------5-----|-7--------7--------------------9-10-12-|
G|-6--------------------------------6-|-8--------8-------------8-9-11---------|
D<-7-----------------7----------------|-9--------9--------9-11----------------|
A|------------------------------------|---------------------------------------|
E|------------------------------------|---------------------------------------|

    Guitar 3 Rhythm Fill
                E|---------------------------------------|
                B|---------------------------------------|
                G|-------------------------------8--9-11-|
                D<------------------------8-9-11---------|
                A|-------------------9-11----------------|
                E|---------------------------------------|

Repeat Chorus

-------------------------------------------------------------------------------


Instrumental/Solo

  Guitar 1 (w/ flanger)
   
  C#m                                  D#m
  ^                                ^  ^ v ^                              ^
E|------------------------------------|---------------------------------------|
B|-5--------------------------------5-|-7-7-7-------------------------------7-|
G|-6--------------------------------6-|-8-8-8-------------------------------Rolling Eyes
D<-6--------------------------------6-|-8-8-8-------------------------------Rolling Eyes
A|-4--------------------------------4-|-6-6-6-------------------------------6-|
E|------------------------------------|---------------------------------------|
 |
 | 
 | 
 |  Guitar 2
 |
E|------4-4-----4-4-----4-4-----4-----|------6-6-----6-6----6-6-----6---------|
B|------5-5-----5-5-----5-5-----5-----|------7-7-----7-7----7-7-----7---------|
G|-6-6--6-6--6--6-6--6--6-6--6--6-----|-8-8--8-8--8--8-8-8--8-8--8--8---------|
D<-6-6-------6-------6-------6--------|-8-8-------8------8-------8------------|
A|-4-4-------4-------4-------4--------|-6-6-------6------6-------6------------|
E|------------------------------------|---------------------------------------|

 
  Guitar 1
   
  E                                      A
    ^ v ^                            ^    ^  ^  ^  ^  ^  ^
E|------------------------------------|---------------------------------------|
B|-9-9-9----------------------------9-|---------------------------------------|
G|-9-9-9----------------------------9-|---------------------------------------|
D<-9-9-9----------------------------9-|---7---7---7---7---7---7---------------|
A|-7-7-7----------------------------7-|---7---7---7---7---7---7---------------|
E|------------------------------------|---5---5---5---5---5---5---------------|
 |
 | 
 | 
 |  Guitar 2
 |
E|------7-7-----7-7-----7-7-----7-----|---------------------------------------|
B|------9-9-----9-9-----9-9-----9-----|---------------------------------------|
G|-9-9--9-9--9--9-9--9--9-9--9--9-----|---------------------------------------|
D<-9-9-------9-------9-------9--------|---7---7---7---7---7---7---------------|
A|-7-7-------7-------7-------7--------|---7---7---7---7---7---7---------------|
E|------------------------------------|---5---5---5---5---5---5---------------|


  C#m                                  D#m

E|------------------------------------|---------------------------------------|
B|-5--------------------------------5-|-7-7-7-------------------------------7-|
G|-6--------------------------------6-|-8-8-8-------------------------------Rolling Eyes
D<-6--------------------------------6-|-8-8-8-------------------------------Rolling Eyes
A|-4--------------------------------4-|-6-6-6-------------------------------6-|
E|------------------------------------|---------------------------------------|
 |
 | 
 | 
 |  Guitar 2
 |
E|------4-4-----4-4-----4-4-----4-----|------6-6-----6-6----6-6-----6---------|
B|------5-5-----5-5-----5-5-----5-----|------7-7-----7-7----7-7-----7---------|
G|-6-6--6-6--6--6-6--6--6-6--6--6-----|-8-8--8-8--8--8-8-8--8-8--8--8---------|
D<-6-6-------6-------6-------6--------|-8-8-------8------8-------8------------|
A|-4-4-------4-------4-------4--------|-6-6-------6------6-------6------------|
E|------------------------------------|---------------------------------------|

 
  Guitar 1
   
  E                                    F#

E|------------------------------------|---------------------------------------|
B|-9-9-9----------------------------9-|---------------------------------------|
G|-9-9-9----------------------------9-|-11-11-11--11-11-11--11-11-11--11-11-11|
D<-9-9-9----------------------------9-|-11-11-11--11-11-11--11-11-11--11-11-11|
A|-7-7-7----------------------------7-|--9--9--9---9--9--9---9--9--9---9--9--9|
E|------------------------------------|---------------------------------------|
 |
 | 
 | 
 |  Guitar 2
 |
E|------7-7-----7-7-----7-7-----7-----|---------------------------------------|
B|------9-9-----9-9-----9-9-----9-----|---------------------------------------|
G|-9-9--9-9--9--9-9--9--9-9--9--9-----|--11-11-11-11-11-11-11-11-11-11-11-11--|
D<-9-9-------9-------9-------9--------|--11-11-11-11-11-11-11-11-11-11-11-11--|
A|-7-7-------7-------7-------7--------|---9--9--9--9--9--9--9--9--9--9--9--9--|
E|------------------------------------|---------------------------------------|



 Guitar 1
   
  F#               

E|-------------------------------------|--------------------------------------|
B|-------------------------------------|--------------------------------------|
G|-11-11-11-11-11-11-11-11-11-11-11-11-|--------------------------------------|
D<-11-11-11-11-11-11-11-11-11-11-11-11-|------------------------------6-7-9---|
A|--9--9--9--9--9--9--9--9--9--9--9--9-|------------------------6-7-9---------|
E|-------------------------------------|--------------------7-9---------------|
 |
 | 
 | 
 |  Guitar 2
 |
E|-------------------------------------|--------------------------------------|
B|-------------------------------------|------------------------------9-10-12-|
G|-11-11-11-11-11-11-11-11-11-11-11-11-|------------------------8-9-11--------|
D<-11-11-11-11-11-11-11-11-11-11-11-11-|--------------------9-11--------------|
A|--9--9--9--9--9--9--9--9--9--9--9--9-|--------------------------------------|
E|-------------------------------------|--------------------------------------|


                     
               Guitar 3 Rhythm Fill

                                      E|-------------------------------------|
                                      B|-------------------------------------|
                                      G|---------------------------- 8-9-11--|
                                      D<-----------------------8-9-11--------|
                                      A|-------------------9-11--------------|
                                      E|-------------------------------------|


ENDING CHORUS


  Guitar 2
   
  Donna keshiki datte mannaka ni wa  Kimi no sugata dake ga atte hoshii
 
    E                                  F#m

E|-------0--0-----0--0-----0--0-----0-|-------0--0------0--0------0--0-----0--|
B|-------0--0-----0--0-----0--0-----0-|-------0--0------0--0------0--0-----0--|
G|-------1--1-----1--1-----1--1-----1-|-------2--2------2--2------2--2-----2--|
D<-2--2--------2--------2--------2----|-4--4---------4---------4--------4-----|
A|-2--2--------2--------2--------2----|-4--4---------4---------4--------4-----|
E|-0--0--------0--------0--------0----|-2--2---------2---------2--------2-----|


  Guitar 2
   
  Aishiteru            nante          terete              ienai keredo
 
    G#m                                  A
 
E|-------0--0-----0--0-----0--0-----0-|-------0--0------0--0------0--0-----0--|
B|-------0--0-----0--0-----0--0-----0-|-------0--0------0--0------0--0-----0--|
G|-------4--4-----4--4-----4--4-----4-|-------6--6------6--6------6--6-----6--|
D<-6--6--------6--------6--------6----|-7--7---------7---------7--------7-----|
A|-6--6--------6--------6--------6----|-7--7---------7---------5--------5-----|
E|-4--4--------4--------4--------4----|-5--5---------5---------5--------5-----|




    Guitar 1
   
  Kokoro saita hana ni waraikakete    Amazuppai kajitsu wo hoobatte
 
    E                                    F#m

E|-0-0-0-------------------------------|-0-0-0--------------------------------|
B|-0-0-0-------------------------------|-0-0-0--------------------------------|
G|-1-1-1-------------------------------|-2-2-2--------------------------------|
D<-2-2-2-------------------------------|-4-4-4--------------------------------|
A|-2-2-2-------------------------------|-4-4-4--------------------------------|
E|-0-0-0-------------------------------|-2-2-2--------------------------------|
 |
 |  Guitar 2
 |
 |
E|-------0--0-----0--0-----0--0-----0-|-------0--0------0--0------0--0-----0--|
B|-------0--0-----0--0-----0--0-----0-|-------0--0------0--0------0--0-----0--|
G|-------1--1-----1--1-----1--1-----1-|-------2--2------2--2------2--2-----2--|
D<-2--2--------2--------2--------2----|-4--4---------4---------4--------4-----|
A|-2--2--------2--------2--------2----|-4--4---------4---------4--------4-----|
E|-0--0--------0--------0--------0----|-2--2---------2---------2--------2-----|


  Guitar 1
   
  Daisuki da nante          terete  ienai keredo   
                         

    G#m                                    A                B

E|-0-0-0--------------------------------|-0----------------0------------------|
B|-0-0-0--------------------------------|-0----------------0------------------|
G|-4-4-4--------------------------------|-6----------------8------------------|
D<-6-6-6--------------------------------|-7----------------9------------------|
A|-6-6-6--------------------------------|-7----------------9------------------|
E|-4-4-4--------------------------------|-5----------------7------------------|
 |
 | Guitar 2
 |
 |
E|-------0--0-----0--0-----0--0-----0-|-------0--0-----0-------0--0----0------|
B|-------0--0-----0--0-----0--0-----0-|-------0--0-----0-------0--0----0------|
G|-------4--4-----4--4-----4--4-----4-|-------6--6-----6-------8--8----8------|
D<-6--6--------6--------6--------6----|-7--7---------7----9--9------9---------|
A|-6--6--------6--------6--------6----|-7--7---------7----9--9------9---------|
E|-4--4--------4--------4--------4----|-5--5---------5----7--7------7---------|



Guitar 1 & 2 from here onwards
   
  Donna keshiki datte mannaka ni wa  Kimi no sugata dake ga atte hoshii
 
    E                                  F#m

E|-------0--0-----0--0-----0--0-----0-|-------0--0------0--0------0--0-----0--|
B|-------0--0-----0--0-----0--0-----0-|-------0--0------0--0------0--0-----0--|
G|-------1--1-----1--1-----1--1-----1-|-------2--2------2--2------2--2-----2--|
D<-2--2--------2--------2--------2----|-4--4---------4---------4--------4-----|
A|-2--2--------2--------2--------2----|-4--4---------4---------4--------4-----|
E|-0--0--------0--------0--------0----|-2--2---------2---------2--------2-----|


 
 
  Furidashita              ame mo naze ka tanoshii kanji

 |
E|-------0--0-----0--0-----0--0-----0-|-------0--0------0--0------0--0-----0--|
B|-------0--0-----0--0-----0--0-----0-|-------0--0------0--0------0--0-----0--|
G|-------4--4-----4--4-----4--4-----4-|-------6--6------6--6------6--6-----6--|
D<-6--6--------6--------6--------6----|-7--7---------7---------7--------7-----|
A|-6--6--------6--------6--------6----|-7--7---------7---------5--------5-----|
E|-4--4--------4--------4--------4----|-5--5---------5---------5--------5-----|


 
  Kokoro saita hana ni waraikakete    Amazuppai kajitsu wo hoobatte
 
    E                                  F#m

 
E|-------0--0-----0--0-----0--0-----0-|-------0--0------0--0------0--0-----0--|
B|-------0--0-----0--0-----0--0-----0-|-------0--0------0--0------0--0-----0--|
G|-------1--1-----1--1-----1--1-----1-|-------2--2------2--2------2--2-----2--|
D<-2--2--------2--------2--------2----|-4--4---------4---------4--------4-----|
A|-2--2--------2--------2--------2----|-4--4---------4---------4--------4-----|
E|-0--0--------0--------0--------0----|-2--2---------2---------2--------2-----|


  Guitar 1

  Doko made mo               tsuzuku boku no          omoi
                         

    G#m                                  A                B

E|-------0--0-----0--0-----0--0-----0-|-------0--0-----0-------0--0----0------|
B|-------0--0-----0--0-----0--0-----0-|-------0--0-----0-------0--0----0------|
G|-------4--4-----4--4-----4--4-----4-|-------6--6-----6-------8--8----8------|
D<-6--6--------6--------6--------6----|-7--7---------7----9--9------9---------|
A|-6--6--------6--------6--------6----|-7--7---------7----9--9------9---------|
E|-4--4--------4--------4--------4----|-5--5---------5----7--7------7---------|


REPEAT INTRO:


------------------------------------------------------------------------------|
                                    END
------------------------------------------------------------------------------|

Thanks for posting this.
I love this song.

Back to top Go down