SCANDALのテーマ Guitar Tabs!
Posted on Sun Sep 11, 2011 11:16 am


Jibba

Mainstream Artist
Mainstream Artist
http://www.youtube.com/user/xJibba?feature=mhee
You thanked this post! -
Thanks received by this post:

Message reputation : 100% (1 vote)


Scandal no Theme (PV Version)
Tabbed by ~Jibba

Spoiler:

Intro
Em
Em
Em Esus4 x 2
D Em x 2
Em Esus4 x 2
D Em x 2

Verse
E G A
E Bb A
E G A
G

Verse Repeat

Chorus
D A/C# B x 2
D A/C# B C
E G Bb x 2

Outro
E G Bb x 2
Em

_____________

Intro Riff x 2
*****
------------- ----------------
-8-8-10-8---- -----7-7-8-7----
-9-9-9--9---- x 2 -----7-7-9-7---- x 2
-9-9-9--9---- -----7-7-9-7----
------------- ----------------
------------- ----------------

Riff between Verses
****
-------------------------------------------------------------
-8------10------12-------------------------------------------
-10b12--12b14---14b16----------------------------------------
-------------------------------------------------------------
-------------------------------------------------------------
-------------------------------------------------------------


Chords
A/C#

-x---
-x---
-6---
-7---
-4---
-x---

Esus4

-x---
-10--
-9---
-9---
-7---
-x---

Have fun!


_________________________________________________________________________________________________
Back to top Go down

Re: SCANDALのテーマ Guitar Tabs!
Posted on Thu Feb 16, 2012 7:19 pm


Laurent

Caless Student
Caless Student
https://soundcloud.com/user-553574026
Great!!!!! Nice One


_________________________________________________________________________________________________
https://www.facebook.com/Tears-On-The-Sea-1651318418476698/

Back to top Go down

Re: SCANDALのテーマ Guitar Tabs!
Posted on Sat Feb 18, 2012 12:52 pm


ll01

Caless Student
Caless Student
this is the definition of badass

Back to top Go down

Re: SCANDALのテーマ Guitar Tabs!
Posted on Wed Mar 28, 2012 1:41 pm


Kunikosanjo

Caless Student
Caless Student
Any Bass Tab ? Please

Back to top Go down