Emotion Guitar Tab [Page 1 of 1]

Emotion Guitar Tab
Posted on Wed Jan 19, 2011 12:17 am


Jibba

Mainstream Artist
Mainstream Artist
http://www.youtube.com/user/xJibba?feature=mhee
Emotion by SCANDAL (tabbed from radio rip)
by Jibba


Paste into Notepad for better view
Spoiler:
All chords are power chords (ie: C = c5) unless noted otherwise

[Chord Progression]

Pre-Intro x 2
D F G A

Introduction
Bb C A D
Bb C D F

Verse x 2
Bb C A D
Bb C D

Pre-Chorus
Bb F C D
Bb A

Chorus
Bb C A D
Bb C A D
Bb C A Db D
Bb C D F*


Introduction Instrumental
Bb C A D
Bb C A D
Bb C A Db D
Bb C D F*

Repeat Verse x 1

Repeat Pre-Chorus

Chorus
Bbsus2 Csus2 Am Dm Dsus2 Dm
Bbsus2 Csus2 Am Dm
Bb C A Db D
Bb C D F

Repeat Regular Chorus x 1

Instrumental Outro
Bb C A D

Outro
Bbsus2 Csus2 Am Dm
Bbsus2 Csus2 Dm

*(High 8th fret)

[Chord Shapes]

Bbsus2
E||----1-----------------|
B||----1-----------------|
G||----3-----------------|
D||----3-----------------|
A||----1-----------------|
E||----x-----------------|

Csus2
E||----3-----------------|
B||----3-----------------|
G||----5-----------------|
D||----5-----------------|
A||----3-----------------|
E||----x-----------------|


Dsus2
E||----5-----------------|
B||----5-----------------|
G||----7-----------------|
D||----7-----------------|
A||----5-----------------|
E||----x-----------------|

Am
E||----0-----------------|
B||----1-----------------|
G||----2-----------------|
D||----2-----------------|
A||----0-----------------|
E||----x-----------------|

Dm
E||----5-----------------|
B||----6-----------------|
G||----7-----------------|
D||----7-----------------|
A||----5-----------------|
E||----x-----------------|

[Lead Licks]

Pre-Intro
E||---------------------------------------|---------------------------|
B||------------10--12b13b12--10--12b13b12-|------10--12--10-----------|
G||--------10-----------------------------|---------------------------|
D||--12-----------------------------------|---------------------------|
A||---------------------------------------|---------------------------|
E||---------------------------------------|---------------------------|



--------------------------------------|-----------------------------|
---------10--12b13b12---10--12b13b12--|------10--12--10------\------|
------10------------------------------|-----------------------------|
--12----------------------------------|-----------------------------|
--------------------------------------|-----------------------------|
--------------------------------------|-----------------------------|



Introduction
------------------------------|----------------------------|
------------------------------|--------------10------------|
--12----12--10--12----12--10--|--12--10--10--------10------|
------------------------------|----------------------------|
------------------------------|----------------------------|
------------------------------|----------------------------|



------------------------------|----------------------------|
------------------------------|--------------10------------|
--12----12--10--12----12--10--|--12--10--10--------10------|
------------------------------|----------------------------|
------------------------------|----------------------------|
------------------------------|----------------------------|



------------------------------|----------------------------|
------------------------------|--------------10------------|
--12----12--10--12----12--10--|--12--10--10--------10------|
------------------------------|----------------------------|
------------------------------|----------------------------|
------------------------------|----------------------------|



------------------------------|-------------------------|
------------------------------|------13--10-------------|
--12----12--10--12----12--12--|-------------------------|
------------------------------|-------------------------|
------------------------------|-------------------------|
------------------------------|-------------------------|


Introduction Instrumental

-------------------------|------------------------------|
-------------------------|------------------------------|
-------------------10----|--12----12--10--12----12--10--|
-------10----12----------|------------------------------|
-------------------------|------------------------------|
-------------------------|------------------------------|



----------------------------|------------------------------|
--------------10------------|------------------------------|
--12--10--10--------10------|--12----12--10--12----12--12--|
----------------------------|------------------------------|
----------------------------|------------------------------|
----------------------------|------------------------------|



------------------------------|------------------------------|
------13--10------------------|------------------------------|
--------------------------10--|--12----12--10--12----10--12--|
------------------10--12------|------------------------------|
------------------------------|------------------------------|
------------------------------|------------------------------|



--------------------------|--------------------------|
--------------------------|--------------------------|
--------------------10----|--------------------10----|
--------10----12----------|--------10----12----------|
--------------------------|--------------------------|
--------------------------|--------------------------|



--------------------------------|------------------------------|
--------------------------------|------------------------------|
----------12--10------------10--|--12----12--10--12----12--10--|
--10--12------------10--12------|------------------------------|
--------------------------------|------------------------------|
--------------------------------|------------------------------|



----------------------------|------------------------------|
--------------10------------|--------------------------13--|
--12--10--10--------10------|--12----12--10--12----12------|
----------------------------|------------------------------|
----------------------------|------------------------------|
----------------------------|------------------------------|



------------------------------|------------------------|
------11--10------13----------|------------13----------|
--------------10--------10----|------------------10----|
------------------------------|------------------------|
------------------------------|------------------------|
------------------------------|------------------------|



--------------------------|------------------------|--------------------|
--------------------------|--------------------10--|--------------------|
--------------------10----|--12--------------------|--------------------|
--------10----12----------|------------------------|--------------------|
--------------------------|------------------------|--------------------|
--------------------------|------------------------|--------------------|



Instrumental Outro
-------------------------|------------------------------|
-------------------------|------------------------------|
-------------------10----|--12----12--10--12----12--10--|
-------10----12----------|------------------------------|
-------------------------|------------------------------|
-------------------------|------------------------------|



--------------------------------|--------------------------------|
------10------------------------|------10------------------------|
--12------12--10--12----12--10--|--12------12--10----------------|
--------------------------------|------------------12----10--12--|
--------------------------------|--------------------------------|
--------------------------------|--------------------------------|

Or download text from here: http://www.mediafire.com/?txjd2dtuez335km
Guitar Pro (guitar licks only with rhythm guitar and bass): http://www.mediafire.com/?ktn36o6i2bednhy
MIDI: http://www.mediafire.com/?jlg5831b5f0m8yg

Have fun playing this song, the licks are simple to play and sound great!



Last edited by Jibba on Sat Feb 12, 2011 4:07 am; edited 1 time in total


_________________________________________________________________________________________________
Back to top Go down

Re: Emotion Guitar Tab
Posted on Wed Jan 26, 2011 7:59 am


bwahaha_13

Indie Artist
Indie Artist
http://bwahaha13.multiply.com/
whew
thanks for this one bro!!
nice cover and tab!!!Thumbs Onion
im gonna try this one!!
hahaha

Back to top Go down

Re: Emotion Guitar Tab
Posted on Fri Mar 25, 2011 11:25 am


Yedz~

Mainstream Artist
Mainstream Artist
http://www.javawakkiz.deviantart.com
(o.o)~I'm so IMPRESSED!~
really awesome!~


_________________________________________________________________________________________________


Once you've seen them they will make your WHOLE LIFE better~
Back to top Go down

Re: Emotion Guitar Tab
Posted on Tue Apr 05, 2011 4:52 pm


snowboi

Caless Student
Caless Student
Thanks! its awesome! =D


_________________________________________________________________________________________________
Back to top Go down

Re: Emotion Guitar Tab
Posted on Wed Apr 06, 2011 2:53 am


Rafayui

Caless Student
Caless Student
thanks fren..... Clap


_________________________________________________________________________________________________



[center]

[/center]
Back to top Go down

Re: Emotion Guitar Tab
Posted on Sun Sep 09, 2012 7:56 am


Andika

SPAMMER
SPAMMER
arigato Nice One
thank you

Back to top Go down