JanaiiChan

Caless Student
Caless Student
https://www.facebook.com/missinglogic?fref=ts
You thanked this post! -
Thanks received by this post:

Message reputation : 100% (1 vote)

So these are my Guitar Tabs for the Intro of Kagen no Tsuki Happy下弦の月
I really love this song LOVE
I also Like Kimi no mirai to kanzen douki Love


So here we go:




Kagen no Tsuki Intro tabs

|-----------------------------------------------------------------|
|-----------------------------------------------------------------|
|--------2------2---6---4---2---4---2---4---2------4--5--6-|
|--4-------4-----------------------------------------------------|
|-----------------------------------------------------------------|
|-----------------------------------------------------------------|

repeat this as long as needed ^_^



Have fun with it ^_^
-JanaiiChan.smile.

Back to top Go down

parkel

International Performer
International Performer
|-----------------------------------------------------------------|
|-----------------------------------------------------------------|
|--------2------4---6---4---2---4---2---4---2------4--5--6------|
|--4-------4------------------------------------------------------|
|-----------------------------------------------------------------|
|-----------------------------------------------------------------|

I spotted a mistake: 2nd fret on 3rd string should be on the 4th fret instead.

Oh, and thanks for the tabs! ^^


_________________________________________________________________________________________________
こんにゃちわ!~
Back to top Go down

~HaruHaru~

Shiroten Performer
Shiroten Performer
My intros a bit different but still has the same rhythm as parkel's
Anyway thanks to both of you for posting up the tabs! 


Spoiler:

|-----------------------------------------------------------------|
|-----------------------------------------------------------------|

|-----------------------------------------------------------------|
|--------7------9--11--9--7---9---7---9---7----9--10--11-|
|--9-------9-----------------------------------------------------|
|-----------------------------------------------------------------|


_________________________________________________________________________________________________
Back to top Go down

JanaiiChan

Caless Student
Caless Student
https://www.facebook.com/missinglogic?fref=ts
ah sorry my bad :D just noticed it
Praise Praise


_________________________________________________________________________________________________
Mami~ ♥ LOVE
Back to top Go down

robin602

Caless Student
Caless Student
You thanked this post! -
Thanks received by this post:

Message reputation : 100% (1 vote)

I play it differently, maybe i'm wrong but i hear this: 
|-----------------------------------------------------------------|
|-----------------------------------------------------------------|
|-----------------------------------------------------------------|
|----------------9---11---9-----------9--------9-------------9---10---11---|
|--9---12---9-----------------12--------12-----12--------------------|
|-----------------------------------------------------------------|



Last edited by robin602 on Sat Aug 31, 2013 3:49 pm; edited 1 time in total (Reason for editing : wrote tabs wrong)

Back to top Go down

M

Mainstream Artist
Mainstream Artist
You thanked this post! -
Thanks received by this post:

Message reputation : 100% (1 vote)

If you watch the Instructional of Kagen no Tsuki or see how Mami plays it in the PV, It's the same with robin602's tab up there ^ (Just sharing XD) Also, HaruHaru and robin602's tab sounds the same Happy
Anyways, good job Nice One


_________________________________________________________________________________________________
Back to top Go down

xMamix

Caless Student
Caless Student
Thank you so much Clap


_________________________________________________________________________________________________
MAIN: MAMI & RINA
Back to top Go down

Blue_Butterflies

Caless Student
Caless Student
I play it as * ~ as slides* But I'm not sure if it's right
|-----------------------------------------------------------------|
|-----------------------------------------------------------------|
|-----------------------------------------------------------------|
|--------7-------9-~-11-----9--7--9--7--9 7----9-10-11-----|
|----9-----9-----------------------------------------------------|
|-----------------------------------------------------------------|


_________________________________________________________________________________________________
I don't plan on seeing you... "Take care"

Back to top Go down

hitokiri347

Caless Student
Caless Student
thank you so much.... Happy

Back to top Go down