Namida yo Hikare (Full guitar tab)
Posted on Sat Sep 28, 2013 8:15 am


egalab

Caless Student
Caless Student
Full tab of Namida yo Hikare.

I tabbed both guitars, you can choose what you want to play. If you can't figure out something or I messed up somewhere, feel free to write!

Have fun, it's a great song!
(Don't forget to copy and paste it into Notepad!)

Spoiler:

Verse:
Chords (pm = palm muted): F C D A
                          A# F G C

e---------------------------------------------------------------------
B---------------------------------------------------------------------
G-------------------5-5-5-5-5-5-5-5-7-7-7-7-7-7-7-7-------------------
D---3-3-3-3-3-3-3-3-5-5-5-5-5-5-5-5-7-7-7-7-7-7-7-7-7-7-7-7-7-7-7-7---
A---3-3-3-3-3-3-3-3-3-3-3-3-3-3-3-3-5-5-5-5-5-5-5-5-7-7-7-7-7-7-7-7---
E---1-1-1-1-1-1-1-1---------------------------------5-5-5-5-5-5-5-5---
 pm . . . . . . . . . . . . . . . . . . . . . . . . . . . . . . . .

e---------------------------------------------------------------------
B---------------------------------------------------------------------
G---3-3-3-3-3-3-3-3---------------------------------5-5-5-5-5-5-5-5---
D---3-3-3-3-3-3-3-3-3-3-3-3-3-3-3-3-5-5-5-5-5-5-5-5-5-5-5-5-5-5-5-5---
A---1-1-1-1-1-1-1-1-3-3-3-3-3-3-3-3-5-5-5-5-5-5-5-5-3-3-3-3-3-3-3-3---
E-------------------1-1-1-1-1-1-1-1-3-3-3-3-3-3-3-3-------------------
 pm . . . . . . . . . . . . . . . . . . . . . . . . . . . . . . . .

Chords: F C D A
        A# F A# C F

e---------------------------------------------------------------------
B---------------------------------------------------------------------
G-------------------5---5-5---5-5---7-7-7---7-7---7-------------------
D---3-3-3---3-3---3-5---5-5---5-5---7-7-7---7-7---7-7---7-7---7-7-----
A---3-3-3---3-3---3-3---3-3---3-3---5-5-5---5-5---5-7---7-7---7-7-----
E---1-1-1---1-1---1---------------------------------5---5-5---5-5-----
 pm . .     .     .     .     .     . .     .     .     .     .

e---------------------------------------------------------------------
B---------------------------------------------------------------------
G---3-3-3---3-3---3-----------------3-3-3-3-5-5-5-5-------------------
D---3-3-3---3-3---3-3---3-3---3-3---3-3-3-3-5-5-5-5-3-3-3-3-3-3-3-3---
A---1-1-1---1-1---1-3---3-3---3-3---1-1-1-1-3-3-3-3-3-3-3-3-3-3-3-3---
E-------------------1---1-1---1-1-------------------1-1-1-1-1-1-1-1---
 pm . .     .     .     .     .

Where Mami sings:
Chords: A F C D
        A F C C

e---------------------------------------------------------------------
B---------------------------------------------------------------------
G---3-3-3-3-3-3-3-3-----------------5-5-5-5-5-5-5-5-7-7-7-7-7-7-7-7---
D---3-3-3-3-3-3-3-3-3-3-3-3-3-3-3-3-5-5-5-5-5-5-5-5-7-7-7-7-7-7-7-7---
A---1-1-1-1-1-1-1-1-3-3-3-3-3-3-3-3-3-3-3-3-3-3-3-3-5-5-5-5-5-5-5-5---
E-------------------1-1-1-1-1-1-1-1-----------------------------------

e---------------------------------------------------------------------
B---------------------------------------------------------------------
G---3-3-3-3-3-3-3-3-----------------5-5-5-5-5-5-5-5-5-5-5-5-5-5-5-5---
D---3-3-3-3-3-3-3-3-3-3-3-3-3-3-3-3-5-5-5-5-5-5-5-5-5-5-5-5-5-5-5-5---
A---1-1-1-1-1-1-1-1-3-3-3-3-3-3-3-3-3-3-3-3-3-3-3-3-3-3-3-3-3-3-3-3---
E-------------------1-1-1-1-1-1-1-1-----------------------------------

Ending:

e---------------
B---------------
G---------------
D---3-2-0-------
A---------3-3---
E---------------

Refrain:
Chords: F D A C   Play it 2 times

e---------------------------------------------------------------------
B---------------------------------------------------------------------
G-----------------------------------7-7-7-7-7-7-7-7-7-7-7-7-7-7-7-7---
D---3-3-3-3-3-3-3-3-3-3-3-3-3-3-3-3-7-7-7-7-7-7-7-7-7-7-7-7-7-7-7-7---
A---3-3-3-3-3-3-3-3-3-3-3-3-3-3-3-3-5-5-5-5-5-5-5-5-5-5-5-5-5-5-5-5---
E---1-1-1-1-1-1-1-1-1-1-1-1-1-1-1-1-----------------------------------

e---------------------------------------------------------------------
B---------------------------------------------------------------------
G---3-3-3-3-3-3-3-3-3-3-3-3-3-3-3-3-5-5-5-5-5-5-5-5-5-5-5-5-5-5-5-5---
D---3-3-3-3-3-3-3-3-3-3-3-3-3-3-3-3-5-5-5-5-5-5-5-5-5-5-5-5-5-5-5-5---
A---1-1-1-1-1-1-1-1-1-1-1-1-1-1-1-1-3-3-3-3-3-3-3-3-3-3-3-3-3-3-3-3---
E---------------------------------------------------------------------

Riff in refrain:

e-----------------------------------
B-----------------13----------------
G---10-10-12--10------12-12-12-10---   Play it 3 times
D-----------------------------------
A-----------------------------------
E-----------------------------------

e--------------------------------
B---------------------------13---
G---10-10-12--10--9-9-10-10------   First ending
D--------------------------------
A--------------------------------
E--------------------------------

e-------------------------------
B---------13--------------------
G---10-10-----10--9-9-10-10-9---   Second ending
D-------------------------------
A-------------------------------
E-------------------------------

Post refrain:
Chords: A# C A D
        A# C D
        A# C A D
        A# C F

e-------------------------------------------------------------------
B-------------------------------------------------------------------
G---3---3---5---5-----------7---7---3---3---5---5---7---7---7---7---
D---3---3---5---5---7---7---7---7---3---3---5---5---7---7---7---7---
A---1---1---3---3---7---7---5---5---1---1---3---3---5---5---5---5---
E-------------------5---5-------------------------------------------

e---------------------------------------------------------------
B---------------------------------------------------------------
G---3---3---5---5-----------7---7---3---3---5---5---------------
D---3---3---5---5---7---7---7---7---3---3---5---5---3-3-3-3-3---
A---1---1---3---3---7---7---5---5---1---1---3---3---3-3-3-3-3---
E-------------------5---5---------------------------1-1-1-1-1---

Pre Verse, it's tricky if you're a beginner (d = picking down, u = picking up):
Chords: F C A# A G
        F C A#

    d u   u d u   u d u   u   u   u d u   u d u   u d u
e---------------------------------------------------------
B---------------------------------------------------------
G-----------5-5---5-------------------------5-5---5-3-3---
D---3-3---3-5-5---5-8-8---8---7---5-3-3---3-5-5---5-3-3---
A---3-3---3-3-3---3-8-8---8---7---5-3-3---3-3-3---3-1-1---
E---1-1---1---------6-6---6---5---3-1-1---1---------------


The second verse is same as the first but we have a little riff in the first half:

e---------------------------------------------------------------------
B---6---6---6---6---5---5---5---5---6---6---6---6---5---5---5---5-----
G-----5---5---5---5---5---5---5---5---5---5---5---5---5---5---5---5---
D---------------------------------------------------------------------
A---------------------------------------------------------------------
E---------------------------------------------------------------------
 pm . . . . . . . . . . . . . . . . . . . . . . . . . . . . . . . .

e---------------------------------------------------------------------
B---------------------------------------------------------------------
G---6---6---6---6---6---6---6---6---6---6---6---6---5---5---5---5-----
D-----5---5---5---5---5---5---5---5---5---5---5---5---5---5---5---5---
A---------------------------------------------------------------------
E---------------------------------------------------------------------
 pm . . . . . . . . . . . . . . . . . . . . . . . . . . . . . . . .


Mami's singing part, then "refrain" and "post refrain" again.

Solo first part (the rhythm guitar plays the chords of the refrain):

e-------------------------------------------------------------------------
B-------------------------------------------------------------------------
G---/14---14--12--15--14--12---10-10---/15---15--14--17--15--14---12-12---
D-------------------------------------------------------------------------
A-------------------------------------------------------------------------
E-------------------------------------------------------------------------

Solo second part (sounds like two guitars but one of them is playing an octave higher so you can stay on the G string or):

e---/17---17--15--17--18--15---17-17---/18---18--17--20--18--17--15-15-13-13-12-12---
B------------------------------------------------------------------------------------
G------------------------------------------------------------------------------------
D------------------------------------------------------------------------------------
A------------------------------------------------------------------------------------
E------------------------------------------------------------------------------------

Refrain (first half is Haruna only).

Post rafrein.

Refrain guitar once again but with different lyrics. And the riff has slightly different ending too:

e----------------------------
B----------------------------
G---10-10-9--10--9-9-10--9---   It's hard to hear what the ending of the riff is, tell me if you can hear it!
D----------------------------
A----------------------------
E----------------------------

The outro is the little thing I called "pre verse" before the 2nd verse. Last chord is F.

The song is simple and fun to play along, enjoy!

Back to top Go down

Re: Namida yo Hikare (Full guitar tab)
Posted on Thu Jan 30, 2014 11:21 am


Junux

Caless Student
Caless Student
Hey may I ask which part is Haruna's and which is Mami's?


EDIT: Okay nvm figured it out. Didn't paste it into notepad so it was a bit confusing

Back to top Go down