EVERYBODY SAY YEAH / Sayonara My Friend / Houkago 1H / Aitai / Hello!Hello! / Playboy PartII / Shoujo M / Hi-Hi-Hi Chords & Tabs555

You are not connected. Please login or register

Go to page : 1, 2, 3, 4  Next


Go down


tsunvun86

Indie Artist
Indie Artist
http://tsunvun86.wordpress.com/
You thanked this post! -
Thanks received by this post:

Message reputation : 100% (5 votes)

As usual copy and paste to Notepad or something similar Happy

01 EVERYBODY SAY YEAH
Spoiler:

SCANDAL - EVERYBODY SAY YEAH

Bb/D - x5333X

Intro:
Fm Bb (x2)
Fm Eb Bb/D C# (x2)

Verse:
Fm G# Bb Fm (x2)
G# Bb
G# Fm G# Fm
Eb G# Fm
G# Bb
C

Chorus:
Fm G# Bb/D C# Eb (x2)

Instrumental:
Fm G# )
Bb G# Bb Fm } (x2)

Verse 2:
Fm G# Bb Fm (x2)
G# Bb
Fm
G# Bb
C

repeat Chorus

Solo:
Fm G# Bb C# Eb (x2)

Bridge:
C# Cm Bb (x2)
C

Fm Bb (x4)

repeat Chorus

Outro:
Fm G# Bb G# Bb Fm (x4)
Fm Eb Bb/D C# (x2)
Fm


Intro/Outro Solo:

Guitar 1
------------------------------------------------------------------------
------------------------------------------------------------------------
---------------3/5-3--3/5-3--3/5-3-----------------3/5-3--3/5-3--3/5-3--
---------------3/5-3--3/5-3--3/5-3-----------------3/5-3--3/5-3--3/5-3--
---------------1/3-1--1/3-1--1/3-1-----------------1/3-1--1/3-1--1/3-1--
-1-1-3b4-1-1-------------------------1-1-3b4-1-1------------------------
(Outro solo starts here...)
------------------------------------------------------------------------
-/9-8-----------------------------/9-8-------------------------9--------
------8-10----------------8--10--------8 10---------------8-10---10-----
-------------------8--10----------------------------8--10---------------
------------8--11----------------------------8--11----------------------
------------------------------------------------------------------------

--------------------------------------------------------------------------
-/9-8---------------------------------------------------------------------
------8-10----------------8--10---3b5-3b5~5b3-1-3-1--3b4-3b4~4b3-1--------
-------------------8--10-------------------------------------------3------
------------8--11---------------------------------------------------------
--------------------------------------------------------------------------

Guitar 2
(Outro solo starts here...)
-/16-15---------------------------------/16-15-----------------------------16-----
--------16-18------------------16--18----------16-18-----------------16-18----18--
-----------------------15--17---------------------------------15--17--------------
---------------15--18---------------------------------15--18----------------------
----------------------------------------------------------------------------------
----------------------------------------------------------------------------------

-/16-15-------------------------------------------------------------------------------------
--------16-18------------------16--18---11b13-11b13~13b11-9-11-9--11b12-11b12~12b11-9-------
-----------------------15--17---------------------------------------------------------10----
---------------15--18-----------------------------------------------------------------------
--------------------------------------------------------------------------------------------
--------------------------------------------------------------------------------------------

Solo:
------------------------------------------------------------11--------------------------------
----------------------------------------------------9-11b13~~~~13b11---11-9-11-11b13b11b13b11-
-13-13-x-13-x-13-13--13-13-x-13-x-13-13--------8p10-------------------------------------------
------------------------------------------8p10------------------------------------------------
-11-11-x-11-x-11-11--11-11-x-11-x-11-11-------------------------------------------------------
----------------------------------------------------------------------------------------------

-----16-15----16-15-------18-16----18-16----18-16----20-18-----20-18---------------------------------------20--
-/13-------13-------13/16-------16-------16-------16--------16-------------------------------------------------
------------------------------------------------------------------------10-10-10-12-12-12-12-13-13-13-15-------
---------------------------------------------------------------------------------------------------------------
---------------------------------------------------------------------------------------------------------------
---------------------------------------------------------------------------------------------------------------


Chords & Tabs by,
tsunvun86 @ SCANDAL HEAVEN

04 Houkago 1H
Spoiler:

SCANDAL - Houkago 1H

C/D - X5333X
G#/C - X3111X
C/E - X7555X


Intro:
G# C# Eb Fm (x2)
Cm C# C/D Fm
G# C# Eb E F#

Verse:
G# C# Eb Fm (x4)

Pre-Chorus:
Cm C#m F#
Cm C#m C#m
Eb C# G# Eb

Chorus:
C# G# (x2)
C# C Fm Eb
C# Eb G#
C# G# (x2)
C# C Fm Eb
C# Eb C#

Instrumental:
G# C# Eb Fm
G# C# Eb E F#

Verse 2:
G# C# Eb Fm (x3)
G# C#
C# G#/C Bbm G#

Solo:
C# G# (x2)
C# C Fm Eb
C# Eb G#

Pre-Chorus 2:
Cm C#m F#
Cm C#m F# C#m
Eb C# G# Eb

Chorus 2:
C# G# (x2) )
C# C Fm Eb } (x2)
C# Eb G# )
C# C Fm Eb
C# Eb C#

Outro:
G# C# Eb Fm (x2)
Cm C# C/E Fm
G# C#
G# (x3)


Intro Solo:
---------------------------------------------------------------------------
---------------------------------------------------------------------------
-13-13-13-13--13-13-13-12-13-13/15--13-8-8-8-8/10--8--6--5-----------------
------------------------------------------------------------8-6-5-6--6-6-6-
-11-11-11-11--11-11-11-10-11-11/13--11-6-6-6-6/8---6--4--3-----------------
------------------------------------------------------------6-4-3-4--4-4-4-

---------------------------------------------------------------------------
---------------------------------------------------------------------------
-13-13-13-13--13-13-13-12-13-13/15--13-8-8-8-8/10--8--6--5-----------------
------------------------------------------------------------8-6-5-6--4-----
-11-11-11-11--11-11-11-10-11-11/13--11-6-6-6-6/8---6--4--3-----------------
------------------------------------------------------------6-4-3-4--2-----

Instrumental Solo:
----------------------------------------------------------------------------
----------------------------------------------------------------------------
-13-13-13-13--13-13-13-12-13-13/15--13-8-8-8-8/10--8--6--5------------------
------------------------------------------------------------8-6-5-6--4--/16-
-11-11-11-11--11-11-11-10-11-11/13--11-6-6-6-6/8---6--4--3------------------
------------------------------------------------------------6-4-3-4--2--/14-

Solo:
-----------------------------------------------------------------------------------
-----------------------------------------------------------------------------------
-----------------------------------------------------------------------------------
-------10-11--10--------------------------------------10-11--10--------------------
-11-13-----------13-11--------10-11--10---------11-13-----------13-11--------10-11-
------------------------11-13------------13-11-------------------------11-13-------

----------------------------------------------------------------------------------------
--------------------------16/18b16-13---------------------------------13----14-13----13-
-----13------12-----12-13-------------15-12-----------------12-13--13----13-------13----
-15------14------15----------------------------------13--15-----------------------------
--------------------------------------------16-15-16------------------------------------
----------------------------------------------------------------------------------------

Outro Solo:
---------------------------------------------------------------------------
---------------------------------------------------------------------------
-13-13-13-13--13-13-13-12-13-13/15--13-8-8-8-8/10--8--6--5-----------------
------------------------------------------------------------8-6-5-6--6-6-6-
-11-11-11-11--11-11-11-10-11-11/13--11-6-6-6-6/8---6--4--3-----------------
------------------------------------------------------------6-4-3-4--4-4-4-

-----------------------------------------------------------------------------
-----------------------------------------------------------------------------
-13-13-13-13--13-13-13-12-13-13/15--13-8-8-8-8/10--8--6--5-------------------
------------------------------------------------------------8-6-5-6--8-6-5-6-
-11-11-11-11--11-11-11-10-11-11/13--11-6-6-6-6/8---6--4--3-------------------
------------------------------------------------------------6-4-3-4--6-4-3-4-

------------------------------------------------------------------
------------------------------------------------------------------
-/15-13-12-13-----------------------------------------------------
------------------------------------------------------------------
-/13-11-10-11-----------------------------------------------------
------------------------------------------------------------------



Chords & Tabs by,
tsunvun86 @ SCANDAL HEAVEN

06 Hi-Hi-Hi
Spoiler:

SCANDAL - Hi-Hi-Hi

B/Eb - x6444x

Intro:
E B/Eb
C#m B F#
C#m (x2)

Verse:
C#m B F# )
C#m } (x2)
E B/Eb C#m
C#m B F# )
C#m } (x3)
C#m B/Eb

Pre-Chorus:
E Eb7 G# C#m Eb7
E Eb7 G#
A B

Chorus:
C#m (x3) )
C#m B F# } (X2)
C#m B F# (x2)
G#m B C#m

Instrumental:
C#m B F#
C#m

Verse:
C#m B F# )
C#m } (x2)
E B/Eb C#m
C#m B F#
C#m
E B/Eb C#m

Solo (Guitar/Bass):
C#m B F#
C#m.......(repeat as many times needed)
E B/Eb C#m
C#m.......(repeat as many times needed)

Bridge:
A B E F#
A G#7
C#m B/Eb E F#m
A G#7
A B

Chorus:
C#m (x3) )
C#m B F# } (X2)
C#m B F# (x2)
C#m Ebm E F#
G# A B C#m

Outro:
C#m B F# )
C#m E B/Eb C#m } (x2)


Solo:
--------------------------------------------------------------
---12b14------------------------------------------------------
-9-------9-9-9-9-9-9---9---9---9----9-------------------------
-9-------------------9---9---9---/9---------------------------
--------------------------------------------------------------
--------------------------------------------------------------


Chords & Tabs by,
tsunvun86

07 Shoujo M
Spoiler:

SCANDAL - Shoujo M

Intro:
G F (x3) )
C D } (x2)

Verse:
G F (x12)

Pre-Chorus:
G F (x3)
G F F#
G F (x3)
G D

Chorus:
Em D C G D
Em F
C7

Instrumental:
G F (x3)
C D

Verse 2:
G F (x3)
C D
G F (x3)

repeat Pre-Chorus

repeat Chorus

Solo:
G F (x3) )
G F F# } (x2)

Bridge:
G F Eb D
G F D

repeat Pre-Chorus

repeat Chorus

Outro:
G F (x3) )
G F F# } (x4)
G


Intro/Instrumental Solo:
------------------------------------------------------------------------------
------------------------------------------------------------------------------
--------------------------------10--9-7---------------------------------------
-9b10b9------------9-9-b10b9--------------9b10b9------------9-10-9-10-9-10-12-
--------10-8--8-10-----------10------------------10-8--8-10-------------------
------------------------------------------------------------------------------
(instrumental starts here...)
--------------------------------------------------------------------------------------
--------------------------------------------------------------------------------------
--------------------------------10--9-7-----------------------------------------------
-9b10b9------------9-9-b10b9--------------9b10b9------------9-10-9-10-9-10-10/12-10-9-
--------10-8--8-10-----------10------------------10-8--8-10---------------------------
--------------------------------------------------------------------------------------


Solo:
------------------------------------------- -------------------------------------------------
-12b13-12b13-12b13-12b13-12b13-8b9-8b9-8b9- -12b13-12b13-12b13-12b13-12b13-13b14-14b15-15b16-
------------------------------------------- -------------------------------------------------
------------------------------------------- (x3) -------------------------------------------------
------------------------------------------- -------------------------------------------------
------------------------------------------- -------------------------------------------------

------------------------------------------------- -15-14-13-12-------------------------------
-15b16-15b16-15b16-15b16-15b16-12b13-12b13-12b13- -------------16-15-14-13-------------------
------------------------------------------------- -------------------------------------------
------------------------------------------------- (x3) -------------------------------------------
------------------------------------------------- -------------------------------------------
------------------------------------------------- -------------------------------------------


Outro Solo:
----------------------------------------
----------------------------------------
--------------------------------10--9-7-
-9b10b9------------9-9-b10b9------------ (x8)
--------10-8--8-10-----------10---------
----------------------------------------



Chords & Tabs by,
tsunvun86

09 Playboy PartII
Spoiler:

SCANDAL - Playboy PartII

C#/F - x8666x
Eb/G - x(10)888x

Intro:
Bbm Fm )
C# G# } (x2)

Verse:
Bbm Fm Ebm C# F (x2)

Pre-Chorus:
Ebm Bbm
Ebm F

Chorus:
Bbm Fm
Ebm G# C# F
F# C#/F
Ebm Fm F# F
Ebm F

Instrumental:
Bbm Fm
C# G#

Verse 2:
Bbm Fm Ebm C# F

repeat Pre-Chorus

repeat Chorus

Bridge:
Bbm F7 G# Eb/G
F# C#/F Ebm F
Bbm F7 G# Eb/G
F# F

repeat Chorus

Bbm
G# Bbm (x2)

Outro:
Bbm Fm )
C# G# } (x2)
Bbm



Intro/Instrumental/Outro Solo:
Guitar 1
------------------------------------- -----------------------------------------
------------------------------------- ----------9------------------------------
---6--------------------------------- ---6-8/10---10\8-6-----------------------
-8---6-8---------------------------6- (x2) -8---------------------------------------
---------6/8--6-4-6--6-4-6-4-6-4-6--- -----------------------------------------
------------------------------------- -----------------------------------------
(instrumental starts here...)
------------------------------------- -----------------------------------------
------------------------------------- ----------9------------------------------
---6--------------------------------- ---6-8/10---10\8-6-----------------------
-8---6-8---------------------------6- (x2) -8-----------------8---------------------
---------6/8--6-4-6--6-4-6-4-6-4-6--- -----------------------------------------
------------------------------------- -----------------------------------------

Guitar 2
16---------------------------------------------------- -------------16----------
----14------------------------------------------------ ----14-16/18----18\16-14-
-15----13-15---------------------------------------13- -15----------------------
-------------13/15--13-11-13--13-11-13-11-13-11-13---- (x2) -------------------------
------------------------------------------------------ -------------------------
------------------------------------------------------ -------------------------
(instrumental starts here...)
16---------------------------------------------------- -------------16-------------
----14------------------------------------------------ ----14-16/18----18\16-14----
-15----13-15---------------------------------------13- -15----------------------15-
-------------13/15--13-11-13--13-11-13-11-13-11-13---- (x2) ----------------------------
------------------------------------------------------ ----------------------------
------------------------------------------------------ ----------------------------

Lick at the end of Bridge:
Guitar 1
------------------------------------------------------------------------------
------------------------------------------------------------------------------
----------8---10--------------------------------------------------------------
-7---10-----8-----------------------------------------------------------------
---8----8---------------------------------------------------------------------
------------------------------------------------------------------------------

Guitar 2
-------------11----13---------------------------------------------------------
-10----13-------11------------------------------------------------------------
----10----10------------------------------------------------------------------
------------------------------------------------------------------------------
------------------------------------------------------------------------------
------------------------------------------------------------------------------




Chords & Tabs by,
tsunvun86

10 Hello!Hello!
Spoiler:

SCANDAL - Hello!Hello!

DM7 - xx0222
Gm - xx0333
A/G - 302220

Intro:
D DM7 Gm D (x4)

Verse:
D DM7 Gm D )
D DM7 Gm D A } (x2)
Bm C G )
Bm C G A

Pre-Chorus:
G Bb
D A Bm A
G Bb
A

Chorus:
D F#m Bm A/G F#m B
Em A G F# Bm C
Em A

Instrumental:
D DM7 Gm D (x2)

Verse 2:
D DM7 Gm D
D DM7 Gm D A
Bm C G
Bm C G A

repeat Pre-Chorus

repeat Chorus

Solo:
G Bb
D A Bm A

Pre-Chorus 2:
G Bb
A

repeat Chorus (x2)

Outro:
D DM7 Gm D (x4)
G


Intro/Instrumental Solo:
------------------------------------------------
------------7----------7----10-8-7-8------------
----7-9-7-9---7--9-7-9---7----------------------
-/7---------------------------------------------
------------------------------------------------
------------------------------------------------

------------------------------------------------
--------7---------------------------------------
-/9-7-9---7-------------------------------------
--------------7--/5--4--------------------------
-----------------------5------------------------
------------------------------------------------

Solo:
---------------------------------------------------------------------
---------------------------------------------------------------------
-7-7-7-6-6-6-7-7-7-7/9-9-9-7-7-9-9-10-10-10-10-9-9-9-9-7-7-7-7-9-9-9-
---------------------------------------------------------------------
---------------------------------------------------------------------
---------------------------------------------------------------------

------------------------------------------------
-8/10\8--8\7--7\5--5\3-5-5b7b5-3----------------
------------------------------------------------
------------------------------------------------
------------------------------------------------
------------------------------------------------

Outro Solo:
------------------------------------------------
------------7----------7----10-8-7-8------------
----7-9-7-9---7--9-7-9---7----------------------
-/7---------------------------------------------
------------------------------------------------
------------------------------------------------

------------------------------------------------
--------7---------------------------------------
-/9-7-9---7-------------------------------------
--------------7--/5--4--------------------------
-----------------------5------------------------
------------------------------------------------

------------------------------------------------
------------7----------7----10-8-7-8------------
----7-9-7-9---7--9-7-9---7----------------------
-/7---------------------------------------------
------------------------------------------------
------------------------------------------------

------------------------------------------------
--------7---------------------------------------
-/9-7-9---7-------------------------------------
--------------7--/5--4--------------------------
-----------------------5---/9\5-----------------
------------------------------------------------


Chords & Tabs by,
tsunvun86 @ SCANDAL HEAVEN

11 Aitai
Spoiler:

SCANDAL - Aitai

C7sus4 - x35363
C7 - x35353
C#sus2 - X66644 OR X46644

Intro:
C# Eb G# Fm Eb
C# Eb (x2)

Verse:
G# C7sus4 C7 )
Fm Eb C# Eb } (x2)

Pre-Chorus:
Cm Bbm Cm C# Cm
Bbm Cm C# Eb
F

Chorus:
C# Eb G# Fm
C# Eb G#
C# Eb G# Fm Eb
C# Eb G#

Instrumental:
C#sus2 G# (x4)

repeat Verse

repeat Pre-Chorus

repeat Chorus

Solo:
Eb C# (x4)

Bridge:
E F# (x2)
G# (x4)
Eb F

repeat Chorus (x2)

Outro:
C# Eb G# Fm )
C# Eb G# } (x2)


Intro Solo:
---- ---- ---- ---- --- --- ---- ----
-11- -13- -11- -13- -8- -9- -11- -13-
----(x4) ----(x4) ----(x4) ----(x4) ---(x4) ---(x4) ----(x4) ----(x4)
-8-- -10- -8-- -10- -5- -6- -8-- -10-
---- ---- ---- ---- --- --- ---- ----
---- ---- ---- ---- --- --- ---- ----

---- ---- ---- ---- ----------------------------
-11- -13- -11- -13- -9--8-9--8-9----------------
----(x4) ----(x4) ----(x4) ----(x4) ----------------------------
-8-- -10- -8-- -10- -6--5-6--5-6----------------
---- ---- ---- ---- ----------------------------
---- ---- ---- ---- ----------------------------


Solo:
---- ---- -------------------------------------------
---- -11- -------------------------------------------
---- ----(alternate picking) --------8--8b10-8b10-8b10-8b10-8b10-8--8\0-
-/8- -8-- -8\0---------------------------------------
---- ---- ------6------------------------------------
---- ---- -------------------------------------------
(alternate pick as you slide)
-------------------------------------------------------------------------
-/11-11-11-x-x-9-x-x-x--x--------------1/~~~~18\~~~~1--------------------
---------------------------------------1/~~~~18\~~~~1--------------------
-/8--8--8--x-x-6-x-x-x--x--/13-13\0--------------------------------------
-------------------------------------------------------------------------
-------------------------------------------------------------------------


Solo at end of Bridge:
------------------------------------------------------------------
------------------------------------------------------------------
-13-13--11-11--10--10--11--10-11---13-13--11-11--10--11-10-8--6-8-
------------------------------------------------------------------
-11-11--9--9---8---8---9---8--9----11-11--9--9---8---9--8--6--4-6-
------------------------------------------------------------------

----------------------------------------------------------- ----
----------------------------------------------------------- ----
-13-13--11-11--10--10--11--10-11---/13-13-13-13-15-15--/17- -17-
----------------------------------------------------------- ----(x7)
-11-11--9--9---8---8---9---8--9----/11-11-11-11-13-13--/15- -15-
----------------------------------------------------------- ----


Outro Solo:
---- ---- ---- ---- --- --- ---- ----
-11- -13- -11- -13- -8- -9- -11- -13-
----(x4) ----(x4) ----(x4) ----(x4) ---(x4) ---(x4) ----(x4) ----(x4)
-8-- -10- -8-- -10- -5- -6- -8-- -10-
---- ---- ---- ---- --- --- ---- ----
---- ---- ---- ---- --- --- ---- ----

---- ---- ---- ---- --- --- ---------------
-11- -13- -11- -13- -8- -9- -11-13--11-13--
----(x4) ----(x4) ----(x4) ----(x4) ---(x4) ---(x2) ---------------
-8-- -10- -8-- -10- -5- -6- -8--10--8--10--
---- ---- ---- ---- --- --- ---------------
---- ---- ---- ---- --- --- ---------------

---- ---- ---- ---- --- --- ---- ----
-11- -13- -11- -13- -8- -9- -11- -13-
----(x4) ----(x4) ----(x4) ----(x4) ---(x4) ---(x4) ----(x4) ----(x4)
-8-- -10- -8-- -10- -5- -6- -8-- -10-
---- ---- ---- ---- --- --- ---- ----
---- ---- ---- ---- --- --- ---- ----

---- ---- ---- ---- ----------------------------
-11- -13- -11- -13- -9--8-9--8-9-9-9-9----------
----(x4) ----(x4) ----(x4) ----(x4) ----------------------------
-8-- -10- -8-- -10- -6--5-6--5-6-6-6-6----------
---- ---- ---- ---- ----------------------------
---- ---- ---- ---- ----------------------------


Chords & Tabs by,
tsunvun86 @ SCANDAL HEAVEN






12 Sayonara My Friend
Spoiler:

SCANDAL - Sayonara My Friend

Esus4 - 022200
B6 - 464444
B/F# - 224442

Intro:
Esus4
E B6 C#m7 B6
A B
A E B7 C#m7
A E F#m Am B
A E B7 C#m7
A E F#m B

Verse:
A E B7 C#m7 )
A B7 E G#7 )
C#m7 G#m A F#m } (x2) *last chord for 2nd repetition is B*
B A G#m B/F# )

Pre-Chorus:
C#m A B C#m
G#m A B7

Chorus:
E B7 C#m7 G#m
A G#m F#m Am
E B7 C#m7 G#m
A B E

Instrumental:
A E B7 C#m7

Verse 2:
A E B7 C#m7
A B7 E G#7
C#m7 G#m A F#m
B A G#m B

repeat Pre-Chorus

Bridge:
A B7 C#m7 G#m
A B7 E

Chorus 2:
E B7 C#m7 G#m
A G#m F#m Am
E B7 C#m7 G#m
F#m B
F C7 Dm7 Am
Bb Am Gm Bbm
F C7 Dm7 Am
Bb C

Outro:
Bb F C7 Dm7 )
Bb F Gm Bbm C } (x6)
F


Lick at the end of 1st Verse repitition:
----------------------------------------------------------
----------------------------------------------------------
---8b9b8---8b9b8------------------------------------------
-9-------9--------6-7-9--4--4-----------------------------
----------------------------------------------------------
----------------------------------------------------------
Lick at the end of 2st Verse repitition/ Verse 2:
----------------------------------------------------------
----------------------------------------------------------
---8b9b8---8b9b8------------------------------------------
-9-------9--------6-7-9--9-9/11-9-------------------------
----------------------------------------------------------
----------------------------------------------------------

Instrumental Solo:
----------------------------------------------------------
----------------------------------------------------------
----------------------------------------------------------
-6--4-6-6/7-6--9--9/13-13--16--/13-14---------------------
----------------------------------------------------------
----------------------------------------------------------


Chords & Tabs by,
tsunvun86 @ SCANDAL HEAVEN



Last edited by tsunvun86 on Mon Sep 06, 2010 9:42 am; edited 12 times in total


_________________________________________________________________________________________________

Chords & Tabs Blog
Youtube Channel - tsun3vun86
~Know Music, Know Life~
Back to top Go down

rock_chick

Mainstream Artist
Mainstream Artist
whoa you're quick as usual Amazed


_________________________________________________________________________________________________



Back to top Go down

d3nise

International Performer
International Performer
http://www.haritomi.deviantart.com
i'm starting to have a conclusion yer somehow related to "The Flash"
lol~ Hmmm

Arigato Tsun-sama~ Onion Love Love


_________________________________________________________________________________________________

"...most people die never realizing the dream of their lives...”


l DeviantArt ll Tumblr l
Back to top Go down

Kuro

Caless Student
Caless Student
eh tsunvun, by any chance do you have a cover for this song?? would be nice to see it Happy

Back to top Go down

tsunvun86

Indie Artist
Indie Artist
http://tsunvun86.wordpress.com/
@Kuro: I don't have any covers yet but might do some of them or at least one of them Tongue

I'll be adding them one by one...Houkago 1H up~ Love the song~ TOMO <3


_________________________________________________________________________________________________

Chords & Tabs Blog
Youtube Channel - tsun3vun86
~Know Music, Know Life~
Back to top Go down

GC.

Shiroten Performer
Shiroten Performer
Thanks lightning tsunvun XD
Loving Sayonara My Friend so far Onion Love Will learn it tonight after work~~

Back to top Go down

akuma_tsubasa

Mainstream Artist
Mainstream Artist
haha just as expected from tsunvun Happy thanks Love


_________________________________________________________________________________________________

“It’s allright to be different.
It’s allright to be lacking something.
It’s allright not to be perfect.”
- Quoted by RINA of SCANDAL
Back to top Go down

yuujin_21

Administrator
Administrator
Naisu one tsun!Thanks!


_________________________________________________________________________________________________
"Bokaru HARUNA desu!"
"Gitaa MAMI desu!"
"Beesu TOMOMI desu!"
"Doraamusu RINA desu!"
Back to top Go down

tsunvun86

Indie Artist
Indie Artist
http://tsunvun86.wordpress.com/
No problem Happy

Aitai added~


_________________________________________________________________________________________________

Chords & Tabs Blog
Youtube Channel - tsun3vun86
~Know Music, Know Life~
Back to top Go down

vincendadiaz

International Performer
International Performer
Thanks a lot Tsun!
i wish i have ears like you had

Back to top Go down

Noodles

Moderator
Moderator
Thanks a lot tsun! Can you do Shoujo M :3


_________________________________________________________________________________________________
Back to top Go down

kirei_kawaii^-^

Shiroten Performer
Shiroten Performer
Can you please do "PLAYBOY Part II" and "GIRLism"?

Back to top Go down

tomoyo21

Caless Student
Caless Student
Can you give the lyrics???

Back to top Go down

YLenalee

Indie Artist
Indie Artist
Thanks tsun-san !!
But I don't understand how to play the solo of Aitai Onion Depress


_________________________________________________________________________________________________

....
Back to top Go down

Noodles

Moderator
Moderator
tomoyo21 wrote:Can you give the lyrics???


The lyrics are not out yet, at least where I've looked. Also this is the Guitar tab & chords forum, theres a Lyrics forum there too Happy


_________________________________________________________________________________________________
Back to top Go down

asuna

Indie Artist
Indie Artist
http://thebudgetgeek.blogspot.com
team tsunvun blasting off at the speed of light yet again Tongue

thanks!

now if only I can learn TIMO's awesome bass solo in Hi-Hi-Hi...


_________________________________________________________________________________________________
http://thebudgetgeek.blogspot.com
Back to top Go down

Vallerie

Shiroten Performer
Shiroten Performer
http://www.fanfiction.net/~noirheart
Wow... That was really fast... Thanks tsunvun-sensei Praise


_________________________________________________________________________________________________

[b]If I could make one wish that God would grant to happen, it is to meet Rina once in my lifetime before I breath my last[/b]
Back to top Go down

yuujin_21

Administrator
Administrator
Sankyu gozaimasu,tsun!Otsukare!


_________________________________________________________________________________________________
"Bokaru HARUNA desu!"
"Gitaa MAMI desu!"
"Beesu TOMOMI desu!"
"Doraamusu RINA desu!"
Back to top Go down

tsunvun86

Indie Artist
Indie Artist
http://tsunvun86.wordpress.com/
Doitashimashite de gozaimasu ponyo~~~~~~~


_________________________________________________________________________________________________

Chords & Tabs Blog
Youtube Channel - tsun3vun86
~Know Music, Know Life~
Back to top Go down

ZimTachibana

Caless Student
Caless Student
thanks a lot tsunvun ur the best ! nice tab-ing for scandal and also for yui ! Nice One

Back to top Go down

View previous topic View next topic Back to top  Message [Page 1 of 4]

Go to page : 1, 2, 3, 4  Next

Permissions in this forum:
You cannot reply to topics in this forum

© 2009-2014 SCANDAL HEAVEN.