Scandal Nanka Buttobase Bass Tabs
Posted on Fri Jan 27, 2012 1:28 pm


CruzeRBladE

Caless Student
Caless Student
So you guys could consider this as a variation (since some parts were changed by me by ear)
Special thanks to asuna since this was based on her bass tabs Clap
so here it is
Spoiler:
intro riff (*spam = follow the drum snares)

|------------8--8--8--8--6--6--6--6-------------------| --4--4--4--4- |----8--8--8--8--6--6--6--6--------------------|
|-----------------------------------------------------| ------------- |----------------------------------------------|
|-1(xspam)-/6--6--6--6--4--4--4--4--2(xspam)--1(xspam)|or -2--2--2--2-- |--/6--6--6--6--4--4--4--4--2(xspam)--1-1-2-1--|
|-----------------------------------------------------| (variation 2xspam) |----------------------------------------------|

Verse

|-----------------------------------------------|
|----------------4-3-1--------------------------|
|-/6\-------1----------4-/6\-------1---/6-6-----|
|-----4\-4\------------------4\-4\--------------|

Prechorus

|-------------------------------------------------------------------------|
|-------------------------------------------------------------------------|
|-------------4(x8)-/9(x8)---------------------1(x8)-1-1-3-3-/4-4-/5-5----|
|-4(x8)-6(x8)--------------1/4(x4)-2(x4)-0(x8)----------------------------|

Chorus


|---------------------------------------------------------------------------------------------------------------------15--------------|
|----------------------------------4/6-6------------4/6-6-----------------------------------------------2/4(x8)----------15-----------|
|-/6-6-----------4/6-6-------------------6-6--------------6-6---------2/4-4-----------2/4-4---------------------1-/13-------13--------|
|------6-6-2-2-6-------6-6-2-2-6-6-----------7-7-4------------7-7-4-4-------4-4-1-1-4-------4-4-1-1-4-4-------------------------------|

|------------------------------------------------------------------------------------------------|
|------------------------------------------------------------------------------------------------|
|--------/11-\---------------------------------------------/6(x8)-------6(x8)-------------6(x8)--|
|-/4-4-4----------2(x8)-4(x3)--1-/6-x-7-6-x--1-/6-x-7-6-x---------4(x8)-------4(x8)-6(x4)--------|


Riff

|---8--8--8--8--6--6--6--6------------------------|
|-------------------------------------------------|
|--6--6--6--6--4--4--4--4--1(spam)-1-1-2-1--------|
|-------------------------------------------------|


Verse

Prechorus

Chorus2

|---------------------------------------------------------------------------------------------------------------------15--------|
|----------------------------------4/6-6------------4/6-6-----------------------------------------------2/4(x8)----------15-----|
|-/6-6-----------4/6-6-------------------6-6--------------6-6---------2/4-4-----------2/4-4---------------------1-/13-------13--|
|------6-6-2-2-6-------6-6-2-2-6-6-----------7-7-4------------7-7-4-4-------4-4-1-1-4-------4-4-1-1-4-4-------------------------|

|------------13------------------------------------------------------------------------------------------------------------|
|---------------13---------------------------------------------------------------------------------------------------------|
|--------/11-------11-9(x8)-11-\------------------------------13\6(x8)-----6(x8)-------------6(x3)-/9(x3)-/11(x3)-/13(x3)--|
|-/4-4-4-------------------------1-/6-x-7-6-x--1-/6-x-7-6-x-----------4(x8)-----4(x8)-6(x4)--------------------------------|

Solo

|--------------------------------------------------------------------------------------------------------------------|
|--------------------------------------------------------------------------------------------------------------------|
|-9---8---7---6---5(x8)-4(x8)-/9---8---7---6---4(x4)-/6(x4)-/7(x4)-/8(x4)-/9(x4)-/11(x4)-/12(x4)-/13(x4)--13(spam!)--|
|--------------------------------------------------------------------------------------------------------------------|


Ending chorus

|---------------13---------------------------------------------------------------------------------------------------|
|------------------13------------------------------------------------------------------------------------------------|
|------------/11------11-9(x8)-11-\-----------------------------/6(x8)-4(x8)-2(x8)-1(x8)-----------------------------|
|-/6\-/4-4-4------------------------1-/6-x-7-6-x--1-/6-x-7-6-x---------------------------1--2(x8)-4(x8)-/6\---6-6\---|


|---------------------------------------------------------------------|
|---------------------------------------------------------------------|
|-/6(x3)-/9(x3)-/11(x3)-/13(x3)-/6(x3)-/9(x3)-/11(x3)-/13(x3)---------|
|---------------------------------------------------------------------|

Repeat full intro riff (use (2xspam) and not the variation)

Outro
whack the open E string, do a slide on the G string until 8th fret, end on Eb (A String 6th fret) then slide down
|----------/8----------|
|----------------------|
|----------------6-\---|
|-0--------------------|
Edit: this is a new version and a bit more complicated (well not actually) of the first variation
basically this has a few more this and thats and still made by listening to the song and i got my volume on hy headphones and my laptop to max just to get this done Nose Bleed
Spoiler:


note: these are my own symbols and this is a variation of the song
you would need good timing on some parts since i can't tab out nearly everything
especially when you would hit this and that

~ hold
! give emphasis to the note
() ghost note - don't pick
/ \ slide
L legato slide - don't strike the 2nd note
nL(n)\ (n is a note) legato slide (ghost n - quick hold) slide down
m mute - kinda like a ghost note although you just mute it
this is done with the fret hand (is that term right?)
(m) mute without picking the string
x dead note or whatever they call it
(xspam) follow the drum snares (or something which is fast and kind of not counted
on how many time you pick it - just time it right with the song)

Intro riff

|------------8!--8!--8!--8!--6!--6!--6!--6!------------------------------| --4!--4!--4!--4!-
|------------------------------------------------------------------------| -----------------
|---------1L6---6---6---6---4---4---4---4---2(xspam)--1m-1-1m-1-1m-1-1m-1|or -2---2---2---2---
|------------------------------------------------------------------------| (variation for 2xspam)

|----8!--8!--8!--8!--6!--6!--6!--6!--------------------|
|------------------------------------------------------|
|--L6---6---6---6---4---4---4---4---2(xspam)--1-1-2-1--|
|------------------------------------------------------|

Verse

|----------------------------------------------------|
|------------------4-3-1-----------------------------|
|1L(6)\-------1---------4--4L(6)\-------1~--/6-6-----|
|-------4\-4\---------------------4\-4\--------------|

Prechorus

|-------------------------------------------------------------------------------------|
|-------------------------------------------------------------------------------------|
|-------------4(x8)-/9(x5)\--------------------------------1(x6)-1-1-3-3-/4-4-/5-5----|
|-4(x8)-6(x8)--------------1234(x4)-2(x3)0~0(m)-0(m)-0(m)-0---------------------------|

Chorus1


|-------------------------------------------------------------------------------------------66-----------------------------|
|----------------------------------4/6-6------------4/6-6--------------------------------------66-4\-----------------------|
|-/6-6-----------4/6-6-------------------6-6--------------6-6---------2/4-4-----------2/4-4---------------------1-L(13)\---|
|------6-6-2-2-6-------6-6-2-2-6-6-----------7-7-4------------7-7-4-4-------4-4-1-1-4----------------2(x8)-----------------|

|------------------------------------------------------------------------------------------------|
|------------------------------------------------------------------------------------------------|
|--------/11-\---------------------------------------------/6(x8)-------6(x8)-------------6(x8)--|
|-/4-4-4----------2(x8)-4(x3)--1-L6-x-7-6-\--1-L6-x-7-6-\---------4(x8)-------4(x8)-6(x4)--------|


Riff

|---8!--8!--8!--8!--6!--6!--6!--6!------------------------|
|---------------------------------------------------------|
|--6---6---6---6---4---4---4---4---1(spam)-1-1-2-1--------|
|---------------------------------------------------------|


Verse

Prechorus

Chorus2

|-----------------------------------------------------------------------------------------------------------------------------|
|----------------------------------4/6-6------------4/6-6-----------------------------------------------2/4(x8)---------------|
|-/6-6-----------4/6-6-------------------6-6--------------6-6---------2/4-4-----------2/4-4---------------------1-/13-\-------|
|------6-6-2-2-6-------6-6-2-2-6-6-----------7-7-4------------7-7-4-4-------4-4-1-1-4-------4-4-1-1-4-4-----------------------|

|------------13------------------------------------------------------------------------------------------------------------|
|---------------13---------------------------------------------------------------------------------------------------------|
|--------/11-------11-9(x8)-11-\------------------------------13\6(x8)-----6(x8)-------------6(x3)-/9(x3)-/11(x3)-/13(x3)\-|
|-/4-4-4-------------------------1-L6-x-7-6-\--1-L6-x-7-6-------------4(x8)-----4(x8)-6(x4)--------------------------------|

Solo

|--------------------------------------------------------------------------------------------------------------------|
|--------------------------------------------------------------------------------------------------------------------|
|-9~--8~--7~--6~--5(x8)-4(x8)-/9~--8~--7~--6~--4(x4)-/6(x4)-/7(x4)-/8(x4)-/9(x4)-/11(x4)-/12(x4)-/13(x4)--13(spam!)--|
|--------------------------------------------------------------------------------------------------------------------|


Ending chorus

|---------------13---------------------------------------------------------------------------------------------------|
|------------------13------------------------------------------------------------------------------------------------|
|------------/11------11-9(x8)-11-\-----------------------------/6(x8)-4(x8)-2(x8)-1(x8)-----------------------------|
|-/6\-/4-4-4------------------------1-L6-x-7-6-\--1-L6-x-7-6-\---------------------------1~/2(x8)-4(x8)-/6\---6-6\---|


|---------------------------------------------------------------------|
|---------------------------------------------------------------------|
|-/6(x3)-/9(x3)-/11(x3)-/13(x3)\---/6(x3)-/9(x3)-/11(x3)-/13(x3)\-----|
|---------------------------------------------------------------------|

Repeat full intro riff (use (2xspam) and not the variation)

Outro
whack the open E string, do a slide on the G string until 8th fret, end on Eb (E String 11th fret) then slide down to 0
|----------/8----------|
|----------------------|
|----------------------|
|-0--------------11\---|



Last edited by CruzeRBladE on Sun Jan 29, 2012 1:18 am; edited 1 time in total (Reason for editing : added a better variation)


_________________________________________________________________________________________________
Onion Love Onion Shy Happy Onion
Back to top Go down