[BASS TAB] BEAUteen! [Page 1 of 1]

[BASS TAB] BEAUteen!
Posted on Mon Mar 29, 2010 5:00 am


haruchan

Caless Student
Caless Student
http://ainoro.livejournal.com
BEAUteen! Bass Tab

Intro :

G --------------------------------------------------|
D --8(x16)--13(x16)--17(x16)--15-13--8--------------|
A --------------------------------------------------|
E --------------------------------------------------|

Couplet 1(0:49)

G --------------------------------------------------|
D --55-5-533-3-311-1-100-0--------------------------|
A -------------------------133-3-3-3-33--44-4-44----|
E --------------------------------------------------|

G --------------------------------------------------|
D -22-2-2-4-----------------------------------------|
A --------------------------------------------------|
E --------------------------------------------------|

Chorus (1:03)

G --------------------------------------------------|
D --------------------------------------------------|
A --------------------------------------------------|
E --4(x8)--11(x8)--13(x8)--9(x8)--------------------|

G --------------------------------------------------|
D --------------------------------------------------|
A -------------------------11-----------------------|
E --4(x8)--11(x8)--13-11-13--13-11-13--9-9-11-11----|

G --------------------------------------------------|
D --------------------------------------------------|
A --------------------------------------------------|
E --4(x8)--11(x8)--13(x8)--9(x8)--------------------|

G --------------------------------------------------|
D --------------------------------------------------|
A -------------------------11-----------------------|
E --4(x8)--11(x8)--13-11-13--13-11-13--9-9-11-11----|

Interlude 1(1:27)

G --------------------------------------------------|
D --------------------------------------------------|
A -----2----4----2-44667799---2---4---2-44667799----|
E --44---44---44------------44--44--44--------------|

Couplet 2 (1:42)

G ---------------------------------------------------|
D ---------33-3-11-1--------33-3-11-1------33-3-11-1-|
A --11-1-1-----------11-1-1----------11-1-1----------|
E ---------------------------------------------------|

G --------------------------------------------------|
D --5-5-5-5-3-3-3-3-1-1-1-1-0-0-0-------------------|
A --------------------------------1-3-3-3-3-3-3-3-3-|
E --------------------------------------------------|

G --------------------------------------------------|
D -----------2-2-24---------------------------------|
A --4-4-44------------------------------------------|
E --------------------------------------------------|

Chorus 2 (2:07)

G --------------------------------------------------|
D --------------------------------------------------|
A --------------------------------------------------|
E --4(x8)--11(x8)--13(x8)--9(x8)--------------------|

G --------------------------------------------------|
D --------------------------------------------------|
A -------------------------11-----------------------|
E --4(x8)--11(x8)--13-11-13--13-11-13--9-9-11-11----|

G --------------------------------------------------|
D --------------------------------------------------|
A --------------------------------------------------|
E --4(x8)--11(x8)--13(x8)--9(x8)--------------------|

G --------------------------------------------------|
D --------------------------------------------------|
A -------------------------11-----------------------|
E --4(x8)--11(x8)--13-11-13--13-11-13--9-9-11-11----|

Interlude 2 (2:30

G --------------------------------------------------|
D ---------------------11-10-8-6--------------------|
A -------------------------------10-8-6-------------|
E --4444-11(x4)-13(x4)------------------------------|

G --------------------------------------------------|
D --------------------------------------------------|
A --------------------------------------------------|
E --4444-11(x4)-13(x4)--00-22-----------------------|

G --------------------986---------------------------|
D -----------------------986------------------------|
A -------------12(x4)-------9-----------------------|
E --7777-14(x4)-------------------------------------|

G --------------------------------------------------|
D --------------------------------------------------|
A --------------------------------------------------|
E --7777-14(x4)-4-2-0/16----------------------------| (/slide up)



Chorus 3 (2:57)

G --------------------------------------------------|
D --------------------------------------------------|
A --------------------------------------------------|
E -16\-4(x8)--11(x8)--13(x8)--9(x8)-----------------|(\slide down)

G --------------------------------------------------|
D --------------------------------------------------|
A -------------------------11-----------------------|
E --4(x8)--11(x8)--13-11-13--13-11-13--9-9-11-11----|

G --------------------------------------------------|
D --------------------------------------------------|
A --------------------------------------------------|
E --4(x8)--11(x8)--13(x8)--9(x8)--------------------|

G --------------------------------------------------|
D --------------------------------------------------|
A -------------------------11-----------------------|
E --4(x8)--11(x8)--13-11-13--13-11-13--9-9-11-11----|

Fin (3:21)

G --------------------------------------------------|
D ---------------------11-10-8-6--------------------|
A -------------------------------10-8-6-------------|
E --4444-11(x4)-13(x4)------------------------------|

G --------------------------------------------------|
D --------------------------------------------------|
A --------------------------------------------------|
E --4444-11(x4)-13(x4)--999-11(x3)------------------|

G --------------------------------------------------|
D --------------------------------------------------|
A -----2----4----2-44667799-2-----------------------|
E --44---44---44--------------4---------------------|



credits - Vanal



Last edited by haruchan on Mon Mar 29, 2010 7:06 am; edited 2 times in total

Back to top Go down

Re: [BASS TAB] BEAUteen!
Posted on Mon Mar 29, 2010 6:53 am


Aosaru

International Performer
International Performer
Thanks for posting these on this website. I was going to post these exact same ones but you beat me to it. just make sure you give credit to the person that made them. You found them at ultimate-guitar.com right?

Back to top Go down

Re: [BASS TAB] BEAUteen!
Posted on Mon Mar 29, 2010 7:03 am


haruchan

Caless Student
Caless Student
http://ainoro.livejournal.com
Thanks for posting these on this website. I was going to post these exact same ones but you beat me to it. just make sure you give credit to the person that made them. You found them at ultimate-guitar.com right?[/quote]

Shy sorry forgot to do that. ;w;

Back to top Go down

Re: [BASS TAB] BEAUteen!
Posted on Mon Mar 29, 2010 7:46 am


Aosaru

International Performer
International Performer
Thanks for posting these on this website. I was going to post these exact same ones but you beat me to it. just make sure you give credit to the person that made them. You found them at ultimate-guitar.com right?[/quote]

Shy sorry forgot to do that. ;w;[/quote]

=) Don't worry about it. I just thought i'd let you know nicely so someone doesn't yell at you later...although I don't see how someone could yell at you on the internet XD haha you know what I mean though.

Back to top Go down

Re: [BASS TAB] BEAUteen!
Posted on Mon Mar 29, 2010 8:11 am


mikan

Mainstream Artist
Mainstream Artist
http://mikanhannille.com/
im goin to post some bass tabs here since we got a few bassist now. I havent tried this tab yet. got to try this when Ill get home. Clap


_________________________________________________________________________________________________
Back to top Go down

Re: [BASS TAB] BEAUteen!
Posted on Mon Mar 29, 2010 8:23 am


haruchan

Caless Student
Caless Student
http://ainoro.livejournal.com
^ I'm looking forward to that *u*

Back to top Go down

Re: [BASS TAB] BEAUteen!
Posted on Mon Mar 29, 2010 8:38 am


mikan

Mainstream Artist
Mainstream Artist
http://mikanhannille.com/
we got a few bass covers here. you can look at it at
the Covers thread. but we didnt post any tabs because we got no full time bassist here. Happy


_________________________________________________________________________________________________
Back to top Go down

Re: [BASS TAB] BEAUteen!
Posted on Mon Mar 29, 2010 9:14 am


haruchan

Caless Student
Caless Student
http://ainoro.livejournal.com
oh.. i'll go check it out now~ ♥

Back to top Go down

Re: [BASS TAB] BEAUteen!
Posted on Fri Jul 30, 2010 5:31 am


MadOrange

Shiroten Performer
Shiroten Performer
thanks for these~ Amazed

Back to top Go down

Re: [BASS TAB] BEAUteen!
Posted on Thu Jul 07, 2011 1:30 am


porcupine_tree

Mainstream Artist
Mainstream Artist
http://chris87.multiply.com
Wow, thanks so much! Tomo's bass playing is surprisingly deft yet tricky to follow so thanks man! Nice One


_________________________________________________________________________________________________
http://www.musiccube.jp/images/goods_img/goods01_p02d.gif
Back to top Go down

Re: [BASS TAB] BEAUteen!
Posted on Mon Jul 25, 2011 8:55 am


sl10

Caless Student
Caless Student
wow thanks this is my sister's favorite song.....now we can jam along! Happy


_________________________________________________________________________________________________
~"Music is my Pride"~
Back to top Go down

Re: [BASS TAB] BEAUteen!
Posted on Wed Aug 10, 2011 7:37 am


ShckAbsrber

Caless Student
Caless Student
Wow. Thanks for the tabs!

Back to top Go down

Re: [BASS TAB] BEAUteen!
Posted on Wed Aug 10, 2011 3:17 pm


akihisa

Caless Student
Caless Student
Yay. I'm going to try these tabs.
Thanks

Back to top Go down